Misc Computer Games - Halo 2 Theme Chords & Tabs

 

Halo 2 Theme Chords & Tabs

Misc Computer Games Chords & Tabs

Version: 1 Type: Tab 0 ratings
1 star 2 stars 3 stars 4 stars 5 stars
comments

Halo 2 Theme Tab

   
Please note taht I am working on the whole song, and that this is all I have gotten by
ear so far, I am gonna bring the song to my guitar teachear and we will figure out the
rest. Please send me suggestions! thanks


-------------------------------------------------------------------------------
			     Halo 2 Theme - Bungie.net (Steve Vai)
-------------------------------------------------------------------------------
Tabbed by: fuxinroxors, Gabe
Email: vampyowns@hotmail.com (please e-mail me suggestions)

Tuning: Standard tuning

(Intro)
e|---------------------------------------------12/---------------------------|
B|---------------------------------------------------------------------------|
G|-/9~--11--12/14--12--11--12--11--12------9---------------------------------|
D|--------------------------------------12-----------------------------------|
A|---------------------------------------------------------------------------|
E|---------------------------------------------------------------------------|

(3x)
e|---------------------------------------------------------------------------|
B|---------------------------------------------------------------------------|
G|--------4-------6-------7------9----9--5--4--------------------------------|
D|--------2-------4-------5------7----7--7--7--------------------------------|
A|---------------------------------------------------------------------------|
E|-0-0-0---0-0-0---0-0-0---0-0-0---------------------------------------------|

(2x)
e|---------------------------------------------------------------------------|
B|---------------------------------------------------------------------------|
G|--------4-4-4---6-6-6---7-7-7---9---9--7--6--------------------------------|
D|--------2-2-2---4-4-4---5-5-5---7---7--5--4--------------------------------|
A|---------------------------------------------------------------------------|
E|---------------------------------------------------------------------------|
[ Tab from: http://www.guitartabs.cc/tabs/m/misc_computer_games/halo_2_theme_tab.html ]
e|---------------------------------------------------------------------------|
B|---12~--12--14--15--14--15--14--12-----------------12--14--12--------------|
G|-----------------------------------14--12--11--14--------------12--11------|
D|-----------------------------------------------------------------------14--|
A|---------------------------------------------------------------------------|
E|---------------------------------------------------------------------------|

e|---------------------------------------------------------------------------|
B|--12--14--14/17~--17--15--14--15--14--12--12--14--15-----------------------|
G|------------------------------------------------------12--11---------------|
D|--------------------------------------------------------------14-----------|
A|---------------------------------------------------------------------------|
E|---------------------------------------------------------------------------|

e|--------------12/17-17-17--------------12/17--------------12--12/17--------|
B|--17--15--12---------------17--15--12---------12--14--15-------------------|
G|---------------------------------------------------------------------------|
D|---------------------------------------------------------------------------|
A|---------------------------------------------------------------------------|
E|---------------------------------------------------------------------------|

e|---------------------------------------------------------------------------|
B|--12--14--15---------------------------------------------------------------|
G|---------------------------------------------------------------------------|
D|---------------------------------------------------------------------------|
A|---------------------------------------------------------------------------|
E|---------------------------------------------------------------------------|

e|---------------------------------------------------------------------------|
B|---------------------------------------------------------------------------|
G|---------------------------------------------------------------------------|
D|---------------------------------------------------------------------------|
A|---------------------------------------------------------------------------|
E|---------------------------------------------------------------------------|


| /  slide up
| \  slide down
| h  hammer-on
| p  pull-off
| ~  vibrato
| +  harmonic
| x  Mute note
===============================================================================
Comments