Misc Computer Games - Final Fantasy X - To Zandarkand Chords & Tabs

 

Final Fantasy X - To Zandarkand Chords & Tabs

Misc Computer Games Chords & Tabs

Version: 2 Type: Tab 0 ratings
1 star 2 stars 3 stars 4 stars 5 stars
comments

Final Fantasy X - To Zandarkand Tab

---------------------------------------------------------------------------
		      To Zanarkand - Final Fantasy X
---------------------------------------------------------------------------
e|-12---3--7--12--14--15--10---2--5--10--12--14---------------------------|
b|----5----------------------3------------------12--12--12--12--10--15--7-|
g|------------------------------------------------------------------------|
d|------------------------------------------------------------------------|
a|------------------------------------------------------------------------|
E|------------------------------------------------------------------------|

e|-12--12--12--12--10--15--8-|-12---12--14--15--14--12--10--12--10-----12-|
b|---------------------------|---12--------------------------------12-----|
g|---------------------------|--------------------------------------------|
d|---------------------------|--------------------------------------------|
a|---------------------------|--------------------------------------------|
E|---------------------------|--------------------------------------------|
[ Tab from: http://www.guitartabs.cc/tabs/m/misc_computer_games/final_fantasy_x_to_zandarkand_tab_ver_2.html ]
e|--12--14--15--14--15--17--15--17-19-12--12--14--15--14--12--10--12--10--|
b|12------------------------------------12---------------------------12---|
g|------------------------------------------------------------------------|
d|------------------------------------------------------------------------|
a|------------------------------------------------------------------------|
E|------------------------------------------------------------------------|

e|------------------------------------------------------------------------|
b|-12--12--12--12--10--15----------------------------17-----------17------|
g|-----------------------12--12--11----------------17----------17---------|
d|----------------------------------12--14--14--17------14--17------------|
a|------------------------------------------------------------------------|
E|------------------------------------------------------------------------|

e|-3--5--12--12--10--8--7--15--15--7--14-14--5--12--12--11--2-2------5--5-|
b|-------------------------------------------------------------5-3-2------|
g|--------------------------------------------------------4---------------|
d|------------------------------------------------------------------------|
a|------------------------------------------------------------------------|
E|------------------------------------------------------------------------|

e|------4-0-----2--------------------------------------|
b|----------2-0---------0------------------------------|
g|----------------2---2--------------------------------|
d|------------------4----------------------------------|
a|-----------------------------------------------------|
E|-----------------------------------------------------|

I think thats right, if your playing it just get the timing right
Dee101
Comments