Misc Computer Games - Final Fantasy 8 - Eyes On Me Chords & Tabs

 

Final Fantasy 8 - Eyes On Me Chords & Tabs

Misc Computer Games Chords & Tabs

Version: 2 Type: Tab 0 ratings
1 star 2 stars 3 stars 4 stars 5 stars
comments

Final Fantasy 8 - Eyes On Me Tab

Song name:Eyes On Me
Artist   :Faye Wong
Tabs By  :James Louie
This is dedicated to Ronalyn a.k.a. "Miss Three Bears" hehehe. mahal na mahal kita! from 
sana maging close pa tau!

Eyes On me

Whenever sang my songs
On the stage, on my own
Whenever said my words
Wishing they would be heard
e|---------------------------------------------------------------------------------------|
B|---------------------------------------------------------------------------------------|
G|----------0--------------------------0-4-4-5-2-0-2-0-----------------------------------|
D|--------2--2-0-2--------0-------2------------------------------------------------------|
A|---3-5------------3-0-3----3-5---------------------------------------------------------|
E|-3--------------------------3----------------------------------------------------------|

I saw you smiling at me
Was it real or just my fantasy
You'd always be there in the corner
Of this tiny little bar
e|-----------------------------------------------------------------------|
B|-----------------------------------------------------------------------|
G|---5-5-4-2-2-0--0-2-2-0---------------------------------------------0--|
D|-5---------------2----------3-3-0-2-2-2-0-2-3-2-0-0----------0-2--0----|
A|------------------------------------------------------------3-0-3-3----|
E|-----------------------------------------------------------------------|

My last night here for you
Same old songs, just once more
My last night here with you?
Maybe yes, maybe no
e|------------------------------------------------------|
B|------------------------------------------------------|
G|----------0--------------------------0-4-4-5-2-0-2-0--|
D|--------2--2-0-2--------0-------2---------------------|
A|---3-5------------3-0-3----3-5------------------------|
E|-3--------------------------3-------------------------|

I kind of liked it your way
How you shyly placed your eyes on me
Oh, did you ever know?
That I had mine on you
e|---------------------------------------------------------------|
B|---------------------------------------------------------------|
G|---5-5-4-2-2-0--0-2-2-0----------------------------------------|
D|-5---------------2----------3--2-0-------2-3-5-5-3--2-0--------|
A|-------------------------------3-------3-5------------3-----3--|
E|--------------------------------------3------------------------|
[ Tab from: http://www.guitartabs.cc/tabs/m/misc_computer_games/final_fantasy_8_eyes_on_me_tab_ver_2.html ]
*Darling, so there you are
With that look on your face
As if you're never hurt
As if you're never down
e|---------------------------------------------------------------------------------------|
B|---------------------------------------------------------------------------------------|
G|-----0-4-2-2-2-4-5-2-0-0--------0-----------0-2-0-0------------------------------------|
D|---2--------------------------2-2-3---3-3-3-3------------------------------------------|
A|-3-------------------------------------------------------------------------------------|
E|---------------------------------------------------------------------------------------|

Shall I be the one for you
Who pinches you softly but sure
If frown is shown then
I will know that you are no dreamer
e|---------------------------------------------------------------------|
B|---------------------------------------------------------------------|
G|---------0-4-2-2----2-4-5-4--4-2-0-0--5------------------------------|
D|------2------------3----------5----------3--3----0-2-2-0------0------|
A|-3-3--------------------------------------------3-----------3-2---3--|
E|---------------------------------------------------------------------|

So let me come to you
Close as I wanted to be
Close enough for me
To feel you're heart beating fast
e|------------------------------------------------------|
B|------------------------------------------------------|
G|----------0--------------------------0-4-4-5-2-0-2-0--|
D|--------2--2-0-2--------0-------2---------------------|
A|---3-5------------3-0-3----3-5------------------------|
E|-3--------------------------3-------------------------|

And stay there as I whisper
How I loved your peaceful eyes on me
Did you ever know
That I had mine on you
e|---------------------------------------------------------------|
B|---------------------------------------------------------------|
G|---5-5-4-2-2-0--0-2-2-0----------------------------------------|
D|-5---------------2----------3--2-0-------2-3-5-5-3--2-0--------|
A|-------------------------------3-------3-5------------3-----3--|
E|--------------------------------------3------------------------|

Darling, so share with me
Your love if you have enough
Your tears if you're holding back
Or pain if that's what it is
e|-----------------------------------------------------|
B|-----------------------------------------------------|
G|-----0-4-2-2-2-4-5-2-0-0--------0-----------0-2-0-0--|
D|---2--------------------------2-2-3---3-3-3-3--------|
A|-3---------------------------------------------------|
E|-----------------------------------------------------|

How can I let you know
I'm more than the dress and the voice
Just reach me out then
You will know that you're not dreaming
e|---------------------------------------------------------------------|
B|---------------------------------------------------------------------|
G|---------0-4-2-2----2-4-5-4--4-2-0-0--5------------------------------|
D|------2------------3----------5----------3--3----0-2-2-0------0------|
A|-3-3--------------------------------------------3-----------3-2---3--|
E|---------------------------------------------------------------------|
Comments