Misc Computer Games - Final Fantasy 7 - Boss Battle Chords & Tabs

 

Final Fantasy 7 - Boss Battle Chords & Tabs

Misc Computer Games Chords & Tabs

Version: 2 Type: Tab 0 ratings
1 star 2 stars 3 stars 4 stars 5 stars
comments

Final Fantasy 7 - Boss Battle Tab

Alrite, no one was gunna tab the whole thing, and I was gettin kinda
pissed cuz its an awesome song. Well here it is, I even got the little
solo thing, even though its not really guitar. If the palm muting’s too
fast for you, try up and downstrokes. Hey I herd theyre making a remake
of FF7 for ps2. Thatll be kik ass. Email me if u no sumthin about it.

Intro & Chorus
e-------------------------------------------------------------|
b-------------------------------------------------------------|
g-------------------------------------------------------------|
d-------------------------------------------------------------|
a---0-0-0-3----0-0-0-5---0-0-0-6-5-3—5-3-2--3-2---------------|  x2
e-------------------------------------------------------------|
(pm on open string)

e-------------------------------------------------------------|
b-------------------------------------------------------------|
g-------------------------------------------------------------|
d-----------1--------3--------4-3-1—3-1-0—1-0-----------------|
a---3-3-3------3-3-3----3-3-3---------------------------------| x2
e-------------------------------------------------------------|
(p.m. on the 3’s on the A string)

(Repeat intro 1x)

Bridge
e-------------------------------------------------------------|
b-------------------------------------------------------------|
g---2---4---5---7—-----------2--------------------------------|
d---2---4---3---7—--3*---2---2--------------------------------|
a---0---2---3---5—--3*---2---0--------------------------------| x2
e-------------------1*---0------------------------------------|
*let ring
[ Tab from: http://www.guitartabs.cc/tabs/m/misc_computer_games/final_fantasy_7_boss_battle_tab_ver_2.html ]
Verse
e-------------------------------------------------------------|
b-------------------------------------------------------------|
g------------------2-2---------------------2-2----------------|
d------------------2-2---------------------2-2----------------|
a--0-0-0-0-0-0-----0-0-----0-0-0-0-0-0-----0-0----------------| x4
e-------------------------------------------------------------|
p.m………(except on chords)………………….


e-------------------------------------------------------------|
b-------------------------------------------------------------|
g-------2---4---5------------2----4---6---7-------------------|
d---5---2---4---5------------2----4---6---7-------------------|
a---5---0---2---3------------0----2---4---5-------------------|
e---3---------------------------------------------------------|

Solo

e----------------------------------------------------------------------------|
b---------------10—8h10\11/10------------------------------------------------|
g-------------------------------------10h12—10p9/7--9---5h7---5h7/9/7--------|
d---12pm12-------------------------------------------------------------------|
a----------------------------------------------------------------------------|
e----------------------------------------------------------------------------|

e----------------------------------------------------------------------------|
b----------------------------------------------------------------------------|
g------------9---7h9/10/9----------------------------------------------------|
d---7pm7-------------------10h12---10p9/7----7—5h7---5h7/9/7-----------------| x3
a----------------------------------------------------------------------------|
e----------------------------------------------------------------------------|

e-----------------------------------------------|
b-----------------------------------------------|
g---2---4---5---6-------------------------------|
d---2---4---5---6-------------------------------|
a---0---2---3---4-------------------------------|
e-----------------------------------------------|
b-----------------------------------------------|

(Repeat everything)

Well that’s it, It should be 100% rite, but it works for me,
so if u don’t like it, make up ur own. Other than that, awesome
song, enjoy. Corrections, suggestions, comments, email me dragin22@hotmail.com
Comments