Misc Computer Games - Espn Extreme Games Theme Chords & Tabs

 

Espn Extreme Games Theme Chords & Tabs

Misc Computer Games Chords & Tabs

Version: 1 Type: Bass Tab 0 ratings
1 star 2 stars 3 stars 4 stars 5 stars
comments

Espn Extreme Games Theme Bass Tab

   
Espn Extreme Games 
This is if you put the playstation game "Espn Extreme Games"
in a cd player.
Bass

h = Hammer-on
S = Slap
P = Pop

Track 3
G|----------------------------|----------------------------|
D|----------------------------|------------------------2h4-|
A|------------------------2h4-|--------------2h4-x-2h4-----|
E|--0-x-0-x-0-x-3h4-x-3h4-----|--0-x-0-x-0-x---------------|
    S S S S S S S   S S   S      S S S S S S S   S S   S



Track 5
G|----------------12h14----------------12h14---------------|
D|---------12h14----------------12h14----------------12h14-|
A|--12h14----------------12h14----------------12h14--------|
E|---------------------------------------------------------|
		   P 			P
[ Tab from: http://www.guitartabs.cc/tabs/m/misc_computer_games/espn_extreme_games_theme_btab.html ]
G|----------------15h17----------------15h17---------------|
D|---------15h17----------------15h17----------------15h17-|
A|--15h17----------------15h17----------------15h17--------|
E|---------------------------------------------------------|
		   P   			P

G|--------------9h11--------------9h11-------------|
D|--------9h11--------------9h11--------------9h11-|
A|--9h11--------------9h11--------------9h11-------|
E|-------------------------------------------------|
		P       	  P

G|---------------|
D|---------------|
A|--3---2---0----|
E|----3---3---2~-|



Track 6
G|--6h7-x-7-------------------------------6h7-x-7-|
D|------------------------------------------------|
A|-----------5h7-------------5h7------------------|
E|----------------0--5h7--0-------0--5h7----------|
    P   P P  S    S  S    S  S    S  S    P   P P

G|------------------------------|
D|--5h7-------------------------|
A|----------5h7-------------5h7-|
E|-------0-------0--5h7--0------|
    P    S  S    S  S    S  P


Any questions, comments, or criticism email at
redweasel56@usa.net
Comments