Misc Computer Games - Dragonball Z Theme Chords & Tabs

 

Dragonball Z Theme Chords & Tabs

Misc Computer Games Chords & Tabs

Version: 2 Type: Tab 0 ratings
1 star 2 stars 3 stars 4 stars 5 stars
comments

Dragonball Z Theme Tab

   
-------------------------------------------------------------------------------
			     Dragon Ball Z Theme
-------------------------------------------------------------------------------

Tabbed by: ZeroIsGreatMan
Tuning: EADGBe

Sorry, but I only know the lead, I don't know the lead licks.
This is when the show ends and Gohan starts walking.
Play it distored.

Intro:
e|---------------------------------------------------------------------------|
B|---------------------------------------------------------------------------|
G|----------5-7-8-/10-------------5-7-8--------------------------------------|
D|-5-7-8----5-7-8-/10----5-7-8----5-7-8--------------------------------------|
A|-5-7-8----3-5-6-/8-----5-7-8----3-5-6--------------------------------------|
E|-3-5-6-----------------3-5-6-----------------------------------------------|

Riff 2:
e|---------------------------------------------------------------------------|
B|---------------------------------------------------------------------------|
G|---------------------------------------------------------------------------|
D|-5\3-/5-5\3/5\3/8----------------------------------------------------------|
A|-5\3-/5-5\3/5\3/8----------------------------------------------------------|
E|-3\1-/3-3\1/3\1/6----------------------------------------------------------|
[ Tab from: http://www.guitartabs.cc/tabs/m/misc_computer_games/dragonball_z_theme_tab_ver_2.html ]
Riff 3:
e|---------------------------------------------------------------------------|
B|---------------------------------------------------------------------------|
G|---------------------------------------------------------------------------|
D|-5\3-/5-5\3/5\8/3----------------------------------------------------------|
A|-5\3-/5-5\3/5\8/3----------------------------------------------------------|
E|-3\1-/3-3\1/3\6/1----------------------------------------------------------|

[Repeat Riff 2]

Riff 4:
e|---------------------------------------------------------------------------|
B|---------------------------------------------------------------------------|
G|-8-3-----------------------------------------------------------------------|
D|-8-3-3---------------------------------------------------------------------|
A|-6-1-3---------------------------------------------------------------------|
E|-----1---------------------------------------------------------------------|

[Repeat Riff 2]

Finale:
e|---------------------------------------------------------------------------|
B|---------------------------------------------------------------------------|
G|---------------8-8-8-8-8-8-------------------------------------------------|
D|-3-3-/5/7/8----8-8-8-8-8-8----5----5-5-5-----------------------------------|
A|-3-3-/5/7/8----6-6-6-6-6-6----5----5-5-5-----------------------------------|
E|-1-1-/3/5/6-------------------3----3-3-3-----------------------------------|


| /  slide up
| \  slide down
| h  hammer-on
| p  pull-off
| ~  vibrato
| +  harmonic
| x  Mute note

===============================================================================
Comments