Misc Computer Games - Dragon Ball Theme Chords & Tabs

 

Dragon Ball Theme Chords & Tabs

Misc Computer Games Chords & Tabs

Version: 1 Type: Tab 0 ratings
1 star 2 stars 3 stars 4 stars 5 stars
comments

Dragon Ball Theme Tab

Dragon Ball Z

Tapion's Theme
Transcribed by DaRk-BaHaMuT
From Dragon Ball Z OAV              
                                       
E||--8--8--13----------20--|--18--16--18------------|
B||------------------------|------------------------|
G||------------------------|------------------------|
D||------------------------|------------------------|
A||------------------------|------------------------|
E||------------------------|------------------------|


                                                                                
------15--16--------16-----|--18--16--15------------|----------13----------20--|
--18-----------------------|------------------------|--13--13------------------|
---------------------------|------------------------|--------------------------|
---------------------------|------------------------|--------------------------|
---------------------------|------------------------|--------------------------|
---------------------------|------------------------|--------------------------|


                                                                                
--18--16--18------------|------15--16------16--15-----|--13--11--13------------|
------------------------|--18-------------------------|------------------------|
------------------------|-----------------------------|------------------------|
------------------------|-----------------------------|------------------------|
------------------------|-----------------------------|------------------------|
------------------------|-----------------------------|------------------------|


                                                                                
----------13----------20--|--18--16--18------------|------15--16--------16-----|
--13--13------------------|------------------------|--18-----------------------|
--------------------------|------------------------|---------------------------|
--------------------------|------------------------|---------------------------|
--------------------------|------------------------|---------------------------|
--------------------------|------------------------|---------------------------|


                                                                             
--18--16--15------------|----------13----------20--|--18--16--18------------|
------------------------|--13--13------------------|------------------------|
------------------------|--------------------------|------------------------|
------------------------|--------------------------|------------------------|
------------------------|--------------------------|------------------------|
------------------------|--------------------------|------------------------|


                                                       
------15--16------16--15-----|--13--11--13------------|
--18-------------------------|------------------------|
-----------------------------|------------------------|
-----------------------------|------------------------|
-----------------------------|------------------------|
-----------------------------|------------------------|


                                                                                
----------13----------20--|--18--16--18------------|------15--16--------16-----|
--13--13------------------|------------------------|--18-----------------------|
--------------------------|------------------------|---------------------------|
--------------------------|------------------------|---------------------------|
--------------------------|------------------------|---------------------------|
--------------------------|------------------------|---------------------------|

[ Tab from: http://www.guitartabs.cc/tabs/m/misc_computer_games/dragon_ball_theme_tab.html ]
                                                                             
--18--16--15------------|----------13----------20--|--18--16--18------------|
------------------------|--13--13------------------|------------------------|
------------------------|--------------------------|------------------------|
------------------------|--------------------------|------------------------|
------------------------|--------------------------|------------------------|
------------------------|--------------------------|------------------------|


                                                       
------15--16------16--15-----|--13--11--13------------|
--18-------------------------|------------------------|
-----------------------------|------------------------|
-----------------------------|------------------------|
-----------------------------|------------------------|
-----------------------------|------------------------|


                                                                                
----------13----------20--|--18--16--18------------|------15--16--------16-----|
--13--13------------------|------------------------|--18-----------------------|
--------------------------|------------------------|---------------------------|
--------------------------|------------------------|---------------------------|
--------------------------|------------------------|---------------------------|
--------------------------|------------------------|---------------------------|


                                                                             
--18--16--15------------|----------13----------20--|--18--16--18------------|
------------------------|--13--13------------------|------------------------|
------------------------|--------------------------|------------------------|
------------------------|--------------------------|------------------------|
------------------------|--------------------------|------------------------|
------------------------|--------------------------|------------------------|


                                                       
------15--16------16--15-----|--13--11--13------------|
--18-------------------------|------------------------|
-----------------------------|------------------------|
-----------------------------|------------------------|
-----------------------------|------------------------|
-----------------------------|------------------------|


                                                                                
----------13----------20--|--18--16--18------------|------15--16--------16-----|
--13--13------------------|------------------------|--18-----------------------|
--------------------------|------------------------|---------------------------|
--------------------------|------------------------|---------------------------|
--------------------------|------------------------|---------------------------|
--------------------------|------------------------|---------------------------|


                                                                             
--18--16--15------------|----------13----------20--|--18--16--18------------|
------------------------|--13--13------------------|------------------------|
------------------------|--------------------------|------------------------|
------------------------|--------------------------|------------------------|
------------------------|--------------------------|------------------------|
------------------------|--------------------------|------------------------|


                                                        
------15--16------16--15-----|--13--11--13------------||
--18-------------------------|------------------------||
-----------------------------|------------------------||
-----------------------------|------------------------||
-----------------------------|------------------------||
-----------------------------|------------------------||


Problems? rocknroll_star@hotmail.com 

enjoy! ;)
Comments