Misc Computer Games - Contra - Shattered Soldier Chords & Tabs

 

Contra - Shattered Soldier Chords & Tabs

Misc Computer Games Chords & Tabs

Version: 1 Type: Tab 0 ratings
1 star 2 stars 3 stars 4 stars 5 stars
comments

Contra - Shattered Soldier Tab

CONTRA: SHATTERED SOLDIER 

pm = palm mute

Guitar tuned 1 half-step down

Riff 1 

eb |-----------------------------------------------------------|
Bb |-----------------------------------------------------------|
Gb |-----------------------------------------------------------|
Db |-------------------------------------------------------/5--|
Ab |-------1-------1-------1-------1-------1-------1-------/4--|
Eb |-0-0-0-0-0-0-0-0-0-0-0-0-0-0-0-0-0-0-0-0-0-0-0-0-0-0-0-/3--|
  pm . . .   . . .   . . .   . . .   . . .   . . .   . . .


Riff 2

eb |-----------------------------------------------------------|
Bb |-----------------------------------------------------------|
Gb |-----------------------------------------------------------|
Db |-------------------1-----------------------------------/5--|
Ab |-------1-------1-------1-------1-------1-------1-------/4--|
Eb |-0-0-0-0-0-0-0---0---0---0-0-0-0-0-0-0-0-0-0-0-0-0-0-0-/3--|
  pm . . .   . . .   .   .   . . .   . . .   . . .   . . .


Note: there are some variations in Riff 2, in which he plays the 
changeup part on a different beat.


Riff 3
[ Tab from: http://www.guitartabs.cc/tabs/m/misc_computer_games/contra_shattered_soldier_tab.html ]
eb |-----------------------------------------------------------|
Bb |-----------------------------------------------------------|
Gb |-----------------------------------------------------------|
Db |-7--6\-------------------7--6\------------0----------------|
Ab |-5--4\-----2---1---0-----5--4\----2---1--------------------|
Eb |-5--4\---0---0---0---0-0-5--4\--0---0---0---0-0------------|
  pm         .   .   .   . .        .   .   .   . .

Riff 4 (Bridge)

eb |-----------------------------------------------------------|
Bb |-7-----------------------6---------------------------------|
Gb |-6-----------------------5---------------------------------|
Db |-6-----------------------5---------------------------------|
Ab |-4-----------------------3---------------------------------|
Eb |-----------------------------------------------------------|

Note: hold the chords for a long time, you can substitute these
chords respectively: xxx122 xxx011

Riff 5 (Outro)

eb |-----------------------------------------------------------|
Bb |-----------------------------------------------------------|
Gb |-----------------------------------------------------------|
Db |-9--8--7--6--9--8--7--6--9--8--7--6--9--8--7--6-6-6-6------|
Ab |-7--6--5--4--7--6--5--4--7--6--5--4--7--6--5--4-4-4-4------|
Eb |-7--6--5--4--7--6--5--4--7--6--5--4--7--6--5--4-4-4-4------|
  pm                                              . . .


Always worship contra music

Need More Video Game Tabs? Just E-Mail Me at xxdeath10xx@yahoo.com or if you have any
suggestions, or corrections, just e-mail me and I'll get back to you with in 8 days. Thats 8 days!
Comments