Misc Comp Games - Yunas Theme Chords & Tabs

 

Yunas Theme Chords & Tabs

Misc Comp Games Chords & Tabs

Version: 1 Type: Tab 0 ratings
1 star 2 stars 3 stars 4 stars 5 stars
comments

Yunas Theme Tab

   
#----------------------------------PLEASE NOTE---------------------------------#
#This file is the author's own work and represents their interpretation of the #
#song. You may only use this file for private study, scholarship, or research. #
#------------------------------------------------------------------------------#


Game: Final Fantasy X
Track: Yuna's Theme
Original Composer: Nobuo Uematsu
Submitted by: Stephen Reid / guitarium@hotmail.com
To: FFTabs (admin email: moonsblade@hotmail.com)



This is my interpretation of Yuna's theme and it's only the very basic melody. 
I think its easier to play the chords with the melody with a capo but you could 
transcribe it to work without one. Just rememeber it's in F major.

Capo 3rd fret - all notes and chords relative to capo.
[ Tab from: http://www.guitartabs.cc/tabs/m/misc_comp_games/yunas_theme_tab.html ]
	  D     A  Bm       G	 	D     A
G -----0--2--5--0--2--0--------------0--2--5------------
D --3-----3-----2--3-----3-----3--3-----3-----2--0--2--0
B --------3-----2--4--------4-----------2-----2---------
F --------0-----2--4--------5-----------0-----2---------
C -----------------2--------5---------------------------
G ------------------------------------------------------

          D     A  Bm       G           D     A* A  G
G -----0--2--5--0--2--0--------------0--2--5--9--5--7
D --3-----3-----2--3-----3-----3--3-----3-----5--5--8
B --------2-----2--4--------4-----------2-----6--6--7
F --------0-----2--4--------5-----------0-----7--7---
C -----------------2--------5--------------------7---
G ---------------------------------------------------
    G  A  G  Bm Dmj7                            F#m    F#m     G
G --7--5--3--2--2-----------------2--0-----0--2--2--2--9-------7
D --8--5--3--3--2--2-----0--3--3--------3--------2--2--10--10--8
B --7--6--4--4--2--2--2--0--4--4-----------------2--2--11--11--7
F -----7--5--4--------4--------------------------4---------11---
C -----7--5--2-----------------------------------4--------------
G -----5--3-----------------------------------------------------

*Aadd12? I think
Comments