Misc Comp Games - Trogdor Chords & Tabs

 

Trogdor Chords & Tabs

Misc Comp Games Chords & Tabs

Version: 1 Type: Tab 2 ratings
1 star 2 stars 3 stars 4 stars 5 stars
comments

Trogdor Tab

   
I've had this tab for a while and noticed the only other tab is a bit off
I think this sounds a bit better

there are actually a couple different riffs in this song
they are:
Chorus/Intro

E|-------------------------------|
G|-------------------------------|
B|-------------------------------|
D|-0-0-8--0-0-5--0-0-8-0-5-0-3/5-|
A|-0-0-8--0-0-5--0-0-8-0-5-0-3/5-|
D|-0-0-8--0-0-5--0-0-8-0-5-0-3/5-|

Verse:
E|---------------------------------------|
G|---------------------------------------|
B|---------------------------------------|
D|-0-0-8-0-0-10-0-0-8-0-0-10-0-0-8-8-8-8-|
A|-0-0-8-0-0-10-0-0-8-0-0-10-0-0-8-8-8-8-|
D|-0-0-8-0-0-10-0-0-8-0-0-10-0-0-8-8-8-8-|

E|---------------------------------------|
G|---------------------------------------|
B|---------------------------------------|
D|-0-0-8-0-0-10-0-0-8-0-0-10-0-0-8-8-8-8-|
A|-0-0-8-0-0-10-0-0-8-0-0-10-0-0-8-8-8-8-|
D|-0-0-8-0-0-10-0-0-8-0-0-10-0-0-8-8-8-8-|
[ Tab from: http://www.guitartabs.cc/tabs/m/misc_comp_games/trogdor_tab.html ]
Bridge:
E|------------------------------------------------------|
G|------------------------------------------------------|
B|------------------------------------------------------|
D|-0-3-5-0-3-5-0-3-5-5-5--0-3-5-0-3-5-0-3-5-0-3-5-5-----|
A|-0-3-5-0-3-5-0-3-5-5-5--0-3-5-0-3-5-0-3-5-0-3-5-5-----|
D|-0-3-5-0-3-5-0-3-5-5-5--0-3-5-0-3-5-0-3-5-0-3-5-5-----|

E|------------------------------------------------------|
G|------------------------------------------------------|
B|------------------------------------------------------|
D|-0-3-5-0-3-5-0-3-5-0-3-5-5--0-3-5-0-3-5-0-3-5-0-3-5-5-|
A|-0-3-5-0-3-5-0-3-5-0-3-5-5--0-3-5-0-3-5-0-3-5-0-3-5-5-|
D|-0-3-5-0-3-5-0-3-5-0-3-5-5--0-3-5-0-3-5-0-3-5-0-3-5-5-|

Ending:
E|---------------------------------|
G|---------------------------------|
B|---------------------------------|
D|-0-0-8--0-0-5--0-0-8-0-5-0-3/5-5-|
A|-0-0-8--0-0-5--0-0-8-0-5-0-3/5-5-|
D|-0-0-8--0-0-5--0-0-8-0-5-0-3/5-5-|

Lyrics:

[play intro]
Trogdor! Trogdor!

[play verse]
Trogdor was a man... I mean, he was a Dragonman... uh, maybe he was just a dragon, um...
but he was still

[play chorus]
Trogdor! Trogdor!

[play bridge]
Burninating the countryside, burninating the peasants.
Burninating all the peoples, and the (flag stroof?) carriages!

[play ending]
(fasoof?) carriages!

[stop playing]
And the Trogdor comes in the NIGHT!

Hope you like it
And remember: 
"If you ever fall off the Sears Tower, just go real limp, because maybe you'll look like a dummy and people will try to catch you because, hey, free dummy"
                                                                    - Jack Handey
Comments