Misc Comp Games - Trogdor From Strongbad Letters Chords & Tabs

 

Trogdor From Strongbad Letters Chords & Tabs

Misc Comp Games Chords & Tabs

Version: 1 Type: Tab 1 rating
1 star 2 stars 3 stars 4 stars 5 stars
comments

Trogdor From Strongbad Letters Tab

Song: TROGDOR!
Artist: Strong Bad (of Homestarrunner.com fame)
Tabber: Pooponabagel

Trogdor was a dragon.  He was a dragon man! Well, he was just a dragon.
But he was still TROGDOOOOOOOOOOOOOOR!

This is a really easy song to play, yet hard tab to find.  It is a good song 
to play when you are trying to get a laugh from one of your chums. 

There is only one riff played the entire song, and it is this riff. But there are 
3 different ways you can do the riff.
[ Tab from: http://www.guitartabs.cc/tabs/m/misc_comp_games/trogdor_from_strongbad_letters_tab.html ]
This is way 1.  You need drop D tuning (DADGBE), or else it will sound
out of tune.  This is one of the best ways to do it, and my personal
favorite.
E|--------------------------------------------
B|--------------------------------------------
G|--------------------------------------------
D|---------8-----------5-----------8---5---3-5
A|---------8-----------5-----------8---5---3-5
D|-0-0-0-0-8---0-0-0-0-5---0-0-0-0-8-0-5-0-3-5

This way has power chords, and it's not in tune.  This would be the worst way
to do it. 
E|--------------------------------------------
B|--------------------------------------------
G|--------------------------------------------
D|---------10----------7-----------10--7---5-7
A|---------10----------7-----------10--7---5-7
E|-0-0-0-0-8---0-0-0-0-5---0-0-0-0-8-0-5-0-3-5

This way, although not my favorite, is the most accurate.
It is in tune, and involves no power chords. plus, you don't have to
detune your guitar, its just EADGBE
E|---------------------------------------------------
B|---------------------------------------------------
G|---------------------------------------------------
D|---------------------------------------------------
A|------------15-----------12-----------15--12--10-12
E|-12-12-12-12--12-12-12-12--12-12-12-12--12--12-----
Comments