Misc Comp Games - Theme For Metal Gear Solid Chords & Tabs

 

Theme For Metal Gear Solid Chords & Tabs

Misc Comp Games Chords & Tabs

Version: 1 Type: Tab 2 ratings
1 star 2 stars 3 stars 4 stars 5 stars
comments

Theme For Metal Gear Solid Tab

Name: Metal Gear Solid2:sons of liberty
Written by: Harry Gregson Williams

Just a rough version of the main melody in the MGS theme (if you don’t like it then screw you!)

E---------------------------------5--3--0-----------
B--5--3--1--3--5----5-3--1--3--5------------1-3--5--
G----------------2----------------------------------
D---------------------------------------------------
A---------------------------------------------------
E---------------------------------------------------
[ Tab from: http://www.guitartabs.cc/tabs/m/misc_comp_games/theme_for_metal_gear_solid_tab.html ]
E-----5--8--7--8--10-8--5--3--5--7--8--7--5--3--5---
B--5------------------------------------------------
G---------------------------------------------------
D---------------------------------------------------
A---------------------------------------------------
E---------------------------------------------------

E----------------------------------7--5-------------
B--7--5--3--5--7-0--7--5--3--5--7---------7--3--5-7-
G---------------------------------------------------
D---------------------------------------------------
A---------------------------------------------------
E---------------------------------------------------

E-----7-10-9-10-12-10--7--5--7--9--10--9--7--5-7----------
B--7------------------------------------------------------
G---------------------------------------------------------
D---------------------------------------------------------
A---------------------------------------------------------
E---------------------------------------------------------

tab by: dantomfi@aol.com
metal gear rocks!!!!! 
Comments