Misc Comp Games - Tetris Song A From Classic Game Boy Korobeiniki Chords & Tabs

 

Tetris Song A From Classic Game Boy Korobeiniki Chords & Tabs

Misc Comp Games Chords & Tabs

Version: 1 Type: Tab 1 rating
1 star 2 stars 3 stars 4 stars 5 stars
comments

Tetris Song A From Classic Game Boy Korobeiniki Tab

   
Song: Tetris Song A from Classic Game Boy (Korobeiniki)
Tabbed by: John Hohengarten (hoey187@hotmail.com)

OK here is another way of playing tetris, different from the other tabs.
It sounds really cool this high up on the guitar with distortion.
Try it. Enjoy!

  Fig A                  Fig B               Fig C
e|-12-------------------|-------12----------|-------------------|
B|----12-13-15-13-12-10-|-10-13----15-13-12-|-12-13-15-13-10-10-|
G|----------------------|-------------------|-------------------|
D|----------------------|-------------------|-------------------|
A|----------------------|-------------------|-------------------|
E|----------------------|-------------------|-------------------|
[ Tab from: http://www.guitartabs.cc/tabs/m/misc_comp_games/tetris_song_a_from_classic_game_boy_korobeiniki_tab.html ]
  Fig D               Fig E            Fig C
e|----13-17-15-13-12-|----12----------|-------------------|
B|-15----------------|-13----15-13-12-|-12-13-15-13-10-10-|
G|-------------------|----------------|-------------------|
D|-------------------|----------------|-------------------|
A|-------------------|----------------|-------------------|
E|-------------------|----------------|-------------------|

  Fig F       Fig G           Fig F       Fig H
e|-----------|---------------|-----------|-----------|
B|-----------|---------------|-----------|------10-9-|
G|-9---------|-------------9-|-9---------|----9------|
D|---10-12-9-|-10-------10---|---10-12-9-|-10--------|
A|-----------|----12-11------|-----------|-----------|
E|-----------|---------------|-----------|-----------|


Order:

Fig A  --\
Fig B     \
Fig C      \_______ This whole thing twice
Fig D      /
Fig E     /
Fig C  --/

Fig F
Fig G
Fig F
Fig H

Repeat ad infinidum

Comments