Misc Comp Games - Super Mario Brothers Chords & Tabs

 

Super Mario Brothers Chords & Tabs

Misc Comp Games Chords & Tabs

Version: 2 Type: Tab 14 ratings
1 star 2 stars 3 stars 4 stars 5 stars
comments

Super Mario Brothers Tab

Tabbed by: DxL - MelvinTheLlama@aol.com - AIM: dxlogan187 - MSN: dxlogan316@hotmail.com

This is a fun song to play. After you finish it, you can do just like in the game
and increase the tempo. You really have to be familiar with the song to play it exactly
right. You can go onto kazaa and search for it. The only good version of it is the
"techno remix".

Standard tuning - EADGBe

-------------------------------------------------------
-------------------------------------------------------
-------------------------------------------------------
-----5------6---------7--REST----5-----6-----7--REST---
-------------------------------------------------------
-7-------4-------5------------7-----4-----5------------

-------------------------------------------------------
-------------------------------------------------------
-------------------------------------------------------
-----5-------2------1--REST------5-----2-----1--REST---
-------------------------------------------------------
--3------0------3--------------3----0-----3------------





--0-0-0---0-3-----
--------1---------
---------------0--
------------------
------------------
------------------

|-----------------------0-3-5--1-3-0--------|
|--1----------0----------------------1-3-0--|
|-----0-----2---3-2---0---------------------|
|--------2----------------------------------| x2
|-------------------------------------------|
|-------------------------------------------|

|--3-2-1---0---------------3-2-1---0--8-8-8---3-2-1---0-----------------------|
|--------4-------1---1-3---------4------------------4-------1---1-3----4-3-1--|
|------------1-2---2------------------------------------1-2---2---------------|
|-----------------------------------------------------------------------------| x2
|-----------------------------------------------------------------------------|
|-----------------------------------------------------------------------------|

                                      
------------0--------------------0----------------0--------
--1-1-1-1-3---1--------1-1-1-1-3--------1-1-1-1-3---1------
----------------2-0-----------------------------------2-0--
-----------------------------------------------------------
-----------------------------------------------------------
-----------------------------------------------------------

--0-0-0---0-3----
--------1--------
--------------0--
-----------------
-----------------
-----------------
[ Tab from: http://www.guitartabs.cc/tabs/m/misc_comp_games/super_mario_brothers_tab_ver_2.html ]
|-----------------------0-3-5--1-3-0--------|
|--1----------0----------------------1-3-0--|
|-----0-----2---3-2---0---------------------|
|--------2----------------------------------| x2
|-------------------------------------------|
|-------------------------------------------|

|--0-----------1-1-------5-5-5-3-1-0----------0-----------1-1-------1-1-1-0-------------|
|----1-----------------0-------------1----------1-----------------0---------3-1---------|
|------0--1--2-----2--------------------2-0-------0--1--2-----2-------------------------|
|-------------------------------------------------------------------------------3--3----| x2
|------------------------------------------------------------------------------------4--|
|---------------------------------------------------------------------------------------|

------------0--------------------0--------------0--------
--1-1-1-1-3---1--------1-1-1-1-3------1-1-1-1-3---1------
----------------2-0---------------------------------2-0--
---------------------------------------------------------
---------------------------------------------------------
---------------------------------------------------------

--0-0-0---0-3-----
--------1---------
---------------0--
------------------
------------------
------------------

--0-----------1-1-------5-5-5-3-1-0----------0-----------1-1-------1-1-1-0-------------
----1-----------------0-------------1----------1-----------------0---------3-1---------
------0--1--2-----2--------------------2-0-------0--1--2-----2-------------------------
-------------------------------------------------------------------------------3--3----
------------------------------------------------------------------------------------4--
---------------------------------------------------------------------------------------

|-----------------------0-3-5--1-3-0--------|
|--1----------0----------------------1-3-0--|
|-----0-----2---3-2---0---------------------|
|--------2----------------------------------| x2
|-------------------------------------------|
|-------------------------------------------|

|--3-2-1---0---------------3-2-1---0--8-8-8----3-2-1---0----------------------|
|--------4-------1---1-3---------4-------------------4-------1---1-3---4-3-1--|
|------------1-2---2-------------------------------------1-2---2--------------|
|-----------------------------------------------------------------------------| x2
|-----------------------------------------------------------------------------|
|-----------------------------------------------------------------------------|

                                    
------------0--------------------0--
--1-1-1-1-3---1--------1-1-1-1-3----
----------------2-0-----------------
------------------------------------
------------------------------------
------------------------------------
Comments