Misc Comp Games - Super Mario Bros Chords & Tabs

 

Super Mario Bros Chords & Tabs

Misc Comp Games Chords & Tabs

Version: 2 Type: Tab 5 ratings
1 star 2 stars 3 stars 4 stars 5 stars
comments

Super Mario Bros Tab

This song originally appeared in the mario bros. 1 and this tab is kind of fun just as a joke and 
although there are many ways to play it (various pitches etc.) this is right.

Standard Tuning

e--0--0--0---0--3------------------------0-3--5--1-3--------3-2-1----0----------------3--2--1------0-8-8-8-
B----------1---------1----------0--------------------1-3-0---------4-------1---1--3------------4-----------
G-----------------0----0------2----3-2-0-------------------------------1-2---2-----------------------------
D-------------------------2--------------------------------------------------------------------------------
A----------------------------------------------------------------------------------------------------------
E----------------------------------------------------------------------------------------------------------
[ Tab from: http://www.guitartabs.cc/tabs/m/misc_comp_games/super_mario_bros_tab_ver_2.html ]
e----------------------------------------------------------------------------------------------------------
B-1--1--1----3--5--1------1--1--1--3-5--1--1--1---3--5--1-------1--1--1--3--5------------------------------
G--------------------2-0---------------------------------2-0-----------------------------------------------
D----------------------------------------------------------------------------------------------------------
A----------------------------------------------------------------------------------------------------------
E----------------------------------------------------------------------------------------------------------

e-0--------------1-1-----5-5-5-5-3-1-0--0----------1--1----1--1--1--0--------------------------------------
B---1-------------------------------------1----------------------------------------------------------------
G------0--0----2-----2----------------------0--0-2------2--------------------------------------------------
D----------------------------------------------------------------------------------------------------------
A----------------------------------------------------------------------------------------------------------
E----------------------------------------------------------------------------------------------------------


 That is pretty much all of the song but if you g=find any problems or typos fell free to e-mail me at 
  Findaway220@aol.com.

Comments