Misc Comp Games - Super Mario Bros Chords & Tabs

 

Super Mario Bros Chords & Tabs

Misc Comp Games Chords & Tabs

Version: 1 Type: Tab 0 ratings
1 star 2 stars 3 stars 4 stars 5 stars
comments

Super Mario Bros Tab

   
#----------------------------------PLEASE NOTE---------------------------------#
#This file is the author's own work and represents their interpretation of the #
#song. You may only use this file for private study, scholarship, or research. #
#------------------------------------------------------------------------------#

Super Mario bros 3 - "In the Fungus house"
Tabbed by anders_jurisoo2@hotmail.com

Gtr 1:
   D#                       F                         F# 
E||---6----6----5--6--6----|--8----8----7--8--8-----||--9----9----8--9--9----|
B||------------------------|------------------------||-----------------------|
G||*-----------------------|-----------------------*||-----------------------|
D||*-----------------------|-----------------------*||-----------------------|
A||------------------------|------------------------||-----------------------|
E||------------------------|------------------------||-----------------------|

[ Tab from: http://www.guitartabs.cc/tabs/m/misc_comp_games/super_mario_bros_tab.html ]
G#                                 
--11----11----10--11--11----|
----------------------------|
----------------------------|
----------------------------|
----------------------------|
----------------------------|



Gtr 2:                                                                  
E||---------6-----------6-----|----------8--------------8-------||
B||------8-----8-----8-----8--|------10-----10------10-----10---||
G||*--8-----------8-----------|--10-------------10-------------*||
D||*--------------------------|--------------------------------*||
A||---------------------------|---------------------------------||
E||---------------------------|---------------------------------||


                                                                        
----------9--------------9------|----------11--------------11------|
------11-----11------11-----11--|------13------13------13------13--|
--11-------------11-------------|--13--------------13--------------|
--------------------------------|----------------------------------|
--------------------------------|----------------------------------|
--------------------------------|----------------------------------|

ENJOY!
Comments