Misc Comp Games - Street Fighter 2 Ken Chords & Tabs

 

Street Fighter 2 Ken Chords & Tabs

Misc Comp Games Chords & Tabs

Version: 1 Type: Tab 0 ratings
1 star 2 stars 3 stars 4 stars 5 stars
comments

Street Fighter 2 Ken Tab

#######################################################################################
|~Thund3r Vulture Productions Brings to you The original Street Fighter II Ken's Theme~|
#######################################################################################

Note : 
	This file is the same thing then the original except for 2 or 3 notes that sound better in my 
version, mainly for the solo part.

	 I figured it out the first year I started playing guitar in my course
at school because what we were doing was too easy :P. Anyway I have always been playing it since then
because it helps alot to practice speed picking and brings back memory from the time when we had
decent fighting games *sigh*. 

If you have any suggestion or requests e-mail
to canadianconcept@hotmail.com.

        Enjoy! It shouldn't be too hard just play the notes
until the end and start back at the beginning. Also try to listen to the song a few times
to get the beat because I am not marking pauses (like between the second 1 and the third
in the beginning of the song). The notes in parentheses () are to add a solo effect
and you don't have to play them. However for a better sound  you should play them (if
you listen to the music you will understand what I mean)


	INTRO
		
E	------------------------------------------------------------------------------
B	------------------------------------------------------------------------------
G	------------------------------------------------------------------------------
D	-0----0-----------------------------------------------------------------------
A	----0----3--3--1--1--1--0--------------------------------------------1--0-----
E	---------------------------3--3--3--3--3--3--3--3--3--3--3--3--3--3-----------



E	------------------------------------------------------------------------------
B	------------------------------------------------------------------------------
G	------------------------------------------------------------------------------
D	-------------------0----------------------------------------------------------
A	-0--0--0--0--0--0-------------------------------------------------------------
E	------------------------------------------------------------------------------

	Main Riff

E	------------------------------------------------------------------------------
B	-----------------------------------------------------------------2--3--2--0---
G	--------0---------------------------0-------------------------0---------------
D	-----0-----3--2--0--0-----0------0----3--2--0--0-----0-----0------------------
A	--0--------------------3------0-------------------3-----0---------------------
E	------------------------------------------------------------------------------
[ Tab from: http://www.guitartabs.cc/tabs/m/misc_comp_games/street_fighter_2_ken_tab.html ]
E	-------------------------------------------------------------------------------
B	-----0--2--0-------------------------------------------------------------------
G	--3-----------3--2--3--2----------0---------------------------0----------------
D	-------------------------------0-----3--2--0--0-----0------0-----3--2--0--0----
A	-------------------------0--0--------------------3------0--------------------3-
E	-------------------------------------------------------------------------------


E	-------------------------------------------------------------------------------
B	-------------------------------------------------------------------------------
G	----------0--2--3--2--0----0--2--0-----------------------0--------------2--0---
D	-0-----0-----------------3---------3--2--3--2--0--2---3-----3--2--0------------
A	----0------------------------------------------------------------------3-------
E	-------------------------------------------------------------------------------

E	-------------------------------------------------------------------------------
B	-------------------------------------------------------------------------------
G	-2-(-2--2--2--2--2--2--2)-----------0--------------3--0--2-(-2--2--2--2--2--2--
D	---------------------------0--2--3-----3--2--0---------------------------------
A	------------------------------------------------3------------------------------
E	-------------------------------------------------------------------------------


E	-------------------------------------------------------------------------------
B	-------------------------------------------------------------------------------
G	-(-2--2--2--2--2--2--2--2)-----------------------------------------------------
D	-------------------------------------------------------------------------------
A	-------------------------------------------------------------------------------
E	-------------------------------------------------------------------------------

	Solo (there's no pause between the main riff and the solo, however listen 
	      carefully to the song for the rythm)

E	-------------------------------------------------------------------------------
B	-------------------------------------------------------------------------------
G	--2--0-----0-------------------------------------0-------0--0------------------
D	--------3----3--2--0-----3--2--0-----0--2--3-------3--2--------3--2--3--2--0---
A	----------------------0-----------3-----------0--------------------------------
E	-------------------------------------------------------------------------------

E	-------------------------------------------------------------------------------
B	-------------------------------------------------------------------------------
G	-------2--2--2--2--2--2--2--2--0-----0-----------------------------------------
D	----0-----------------------------3-----3--2--0-----3--2--0-----0--2--3--------
A	-3-----------------------------------------------0-----------3-----------------
E	-------------------------------------------------------------------------------

E	-------------------------------------------------------------------------------
B	-------------------------------------------------------------------------------
G	--0--2--3--0-------------------------------------------------------------------
D	--------------3-----0----------------------------------------------------------
A	-----------------3-------------------------------------------------------------
E	-------------------------------------------------------------------------------


That's it, just follow the song's rythm and you will be able to do the song without too much
effort ^_^;
Comments