Misc Comp Games - Smb3 Battle Game Chords & Tabs

 

Smb3 Battle Game Chords & Tabs

Misc Comp Games Chords & Tabs

Version: 1 Type: Tab 0 ratings
1 star 2 stars 3 stars 4 stars 5 stars
comments

Smb3 Battle Game Tab

   
Song: Super Mario Bros. 3 - Battle Game (from the Super Mario All-Stars version)
Band: N/A
Tabbed by: SpRiNgWaFfLe [springwaffle@comcast.net]

Okay. So I haven't played the original Mario Bros. in a long time so I can't
remember if this song is from the original as well or just on the SMB3/All-Stars
version. Anyways here it is. For the bass part you're gonna want tune A down 
a whole step to G and E TWO whole steps to C. There's a few variations of the 
main riff but I'm sure you can figure it out yourself. 
Enough with the blabberin here it is.

Bass - Intro
g--------------------
d--------------------
g-------------1-2---- x2
c-0-0-4-4-5-5--------    

Bass - Main Riff
g--------------------
d--------------------
g-------------1-2---- x4
c-0-0-4-4-5-5--------

Then this thing:
g---------------------------------
d---------0-0-2-5-------------0-3-
g-0-0-4-4-------------2-2-5-5-----
c-----------------5-5-------------
[ Tab from: http://www.guitartabs.cc/tabs/m/misc_comp_games/smb3_battle_game_tab.html ]
g---------------------------------
d---------------------------------
g-------------1-2---0-0-0-2-2-4-4-
c-0-0-4-4-5-5--------------------- 

Guitar - Main Riff (after bass intro)
e--------------------------------
b-4-5-4-5------------4p3---------
g---------7-5---5--5-----5-----5-
d-------------7--------------7---
a-------------------------------- x2
e--------------------------------

e-----5-6-7-----------------
b-8-8-------8--8-6-6-5-6----
g---------------------------
d---------------------------
a---------------------------
e---------------------------

e---------------------------------------
b-1-3-1-4-4-3-4-3-1---1---0-0-0-1-1-3-3-
g-------------------2-------------------
d--------------------------------------- back to main riff
a---------------------------------------
e---------------------------------------

Repeat as desired. I hope this made sense.
I plan on tabbing some more video game music soon.

     Peace
        -- SpRiNgWaFfLe
Comments