Misc Comp Games - Shenmue Chords & Tabs

 

Shenmue Chords & Tabs

Misc Comp Games Chords & Tabs

Version: 1 Type: Tab 0 ratings
1 star 2 stars 3 stars 4 stars 5 stars
comments

Shenmue Tab

transcribed by aimeemannboy
shenmue theme
sega
[ Tab from: http://www.guitartabs.cc/tabs/m/misc_comp_games/shenmue_tab.html ]
|-10-9------------------10-9------------------------|
|-----10-12---------10-------10-12---------10-10-12-|
|-----------11-9-11----------------11-9-11----------|
|---------------------------------------------------|
|---------------------------------------------------|
|---------------------------------------------------|

|-10-9-----------------------------|
|------10-12------10---------------|
|------------11-9----11-9-11-9-----|
|------------------------------12--|
|----------------------------------|
|----------------------------------|

i couldn't help myself tabbing this little tune.  such a great game!
Comments