Misc Comp Games - Resident Evil 2 Chords & Tabs

 

Resident Evil 2 Chords & Tabs

Misc Comp Games Chords & Tabs

Version: 1 Type: Tab 1 rating
1 star 2 stars 3 stars 4 stars 5 stars
comments

Resident Evil 2 Tab

Resident Evil 2
Tabbed by: Paul Edland


This


E-------3-----4-----------|-------------------------|---------2---------------|
B-------------------------|-----3---4-------3---4---|-----3---4---------------|
G-5-----------------------|-5-----------5-----------|-5-------5---------------|
D-------5-----6-----------|-------------------------|---------4---------------|
A-3-----------------------|-3-----------------------|-------------------------|
E-------------------------|-------------------------|-------------------------|


[ Tab from: http://www.guitartabs.cc/tabs/m/misc_comp_games/resident_evil_2_tab.html ]
E-------3---------3-------|-------------------------|---------2---------------|
B-------------------------|-----3---4-------3---4---|-----3---4---------------|
G-5-----------5-----------|-5-----------5-----------|-5-------5---------------|
D-------5---------5-------|-------------------------|---------4---------------|
A-3-----------3-----------|-3-----------------------|-------------------------|
E-------------------------|-------------------------|-------------------------|


                                 /----------------Very Fast Picking----------------\
E-3-----2-----------------|---------------------------------|--------------------------------|
B-------------4-----------|---------------------------------|--------------------------------|
G-------------------5-----|------12----12----10-------------|--------------------------------|
D-------------------------|-9-------10----10----12-13-12-13-|-12-13-10-12----10--------------|
A-------------------------|---------------------------------|-------------10----10-3---------|
E---------------1--3--4---|---------------------------------|--------------------------------|
                \-BASS-/ *Added the BASS line.

			
Comments