Misc Comp Games - Perfect Dark Theme Chords & Tabs

 

Perfect Dark Theme Chords & Tabs

Misc Comp Games Chords & Tabs

Version: 1 Type: Tab 0 ratings
1 star 2 stars 3 stars 4 stars 5 stars
comments

Perfect Dark Theme Tab

Perfect Dark Theme
Tabbed By: Aaron Anderson

Key:                           *playable with distortion/acoustic

*: let previous string ring


|------------------------------|
|------------------------------|
|------------------------------|
|---------5----4---------------|(x4)
|----6-------------------------|
|------------------------------|

|------------------------------------------------------|
|---------5----4----------------4----6----3---0-4------|
|----6--------------4---0-5----------------------------|
|------------------------------------------------------|
|------------------------------------------------------|
|------------------------------------------------------|
[ Tab from: http://www.guitartabs.cc/tabs/m/misc_comp_games/perfect_dark_theme_tab.html ]
|-------------------------------------------------------|
|4--4--4--4--4--4--4--4---4-4-4-4-4-4-4-4-4-4-4-4-4-4-4-|
|-------------------------------------------------------|
|-------------------------5-5-5-5-5-5-5-5-5-5-5-5-5-5-5-|
|-------------------------------------------------------|
|-------------------------------------------------------|

|----------------------------------------|
|----------------------------------------|
|----------------------------------------|
|-----------4-4-4-4--3-3-3-3-------------|
|--5-5-5-5--------------------5-5-5-5----|
|----------------------------------------|

|-----------------------------------------------|
|--5--5--5--5--5--5--5--5*--5-5-5-5-5-5-5-5*----|
|-----------------------------------------------|
|-----------------------------------------------|
|--5--5--5--5--5--5--5--5*--5-5-5-5-5-5-5-5*----|
|-----------------------------------------------|

|-----------------------------------------------------|
|-----------------------------------------------------|
|-----------------------------------------------------|
|---------5----4----------------4----6----3---0-4-----|
|----6--------------4---0-5---------------------------|
|-----------------------------------------------------|


That's as far as I got, have fun, and enjoy!







Comments