Misc Comp Games - Perfect Dark Chords & Tabs

 

Perfect Dark Chords & Tabs

Misc Comp Games Chords & Tabs

Version: 1 Type: Tab 0 ratings
1 star 2 stars 3 stars 4 stars 5 stars
comments

Perfect Dark Tab

   
Perfect Dark - Main Theme

Transcribed by Paul Cosgrove (Guitar) and Stephen Cosgrove (Drums)

Normal Tuning : EADGBE - 4 beats per bar,   = 120

I haven't done the timing, but the bars should be divided 
up properly. You might have to listen to it a few times,
but if you're familiar with the song, you ought to be okay.

MAIN RIFF (Guitar 1)
  Em          Am  Bm      Em               (Background Chords[Gtr 3])
E|-0-3-2---|-----3-5-2-|---0------|----------|
B|-------3-|-0-1-------|-3--------|----------|
G|---------|-----------|----------|----------|
D|---------|-----------|----------|----------|
A|---------|-----------|----------|----------|
E|---------|-----------|----------|----------|

RIFF 1 (Guitar 2 or maybe Bass)
  Em          Am  Bm      Em               (Background Chords[Gtr 3])
  C               D       Em               (Background Chords Before Riff 2)  
E|---------|-----------|----------|----------|
B|---------|-----------|----------|----------|
G|---0-----|-----0-2---|----------|----------|
D|-2---4-0-|---------3-|-0-2------|----------|
A|---------|-2-3-------|----------|----------|
E|---------|-----------|----------|----------|

RIFF 2 (Guitar 1)
  C               D      Em                 (Background Chords[Gtr 3])
E|-0-3-2---|-----0-2-3-2-|0-7/8\7-0-|-0-12-----|
B|-------3-|-0-1---------|----------|----------|
G|---------|-------------|----------|----------|
D|---------|-------------|----------|----------|
A|---------|-------------|----------|----------|
E|---------|-------------|----------|----------|
[ Tab from: http://www.guitartabs.cc/tabs/m/misc_comp_games/perfect_dark_tab.html ]
RIFF 3
  Em        Gm    Em     Cm     (Background Chords[Gtr 3])
E|-0-2-3-|-5-6-8-|-7-10-|-8----|
B|-------|-------|------|------|
G|-------|-------|------|------|
D|-------|-------|------|------|
A|-------|-------|------|------|
E|-------|-------|------|------|

RIFF 4
  Em        Gm    Em     Cm      (Background Chords[Gtr 3])  
E|-0-2-3-|-5-6-8-|-7-10-|-11---|
B|-------|-------|------|------|
G|-------|-------|------|------|
D|-------|-------|------|------|
A|-------|-------|------|------|
E|-------|-------|------|------|



ORCHESTRA HIT CHORDS  (Guitar 3)
1  +  2  +  3  +  4  + | 1  +  2  +  3  +  4  +
Em    Gm    F#m   Dm Bm| Cm    Gm    Am   F#m Dm

SYNTH PART 1 (Play Chords [Guitar 3])
Em	Gm	Em	Cm      (1 chord per bar)

SYNTH PART 2 (Pluck strings E(bass)->E(high))
Em
Gm
Em
Cm

BASS SOLO (for guitar)
  Em  Gm   Em  Cm
E|---|----|---|---|
B|---|----|---|---|
G|---|----|---|---|
D|---|----|---|---|
A|-7-|-10-|-7-|-3-|
E|-7-|-10-|-7-|-3-|

ORDER:
Main Riff
Riff 1 (Guitar 2)
Main Riff & Riff 1
Riff 1 (Guitar 2)
Riff 2
Orchestra Hit Chords
Synth Part 1
Bass Solo
Riff 3 & Bass Solo
Synth Part 2 & Bass Solo
Riff 4 & Bass Solo
Orchestra Hit Chords
	Then:
Repeat to Synth Part 1, then fade out

DRUM BEAT (one bar)
Build up (Hi-hat -> Hi-Hat & Bass -> Full Beat) after Orch. Hit Chords
Cuts out for Orch. Hit Chords.  Cymbals at start of each riff & Orch Hit Chords.  Snare solo (@ Hi-Hat rhythm) at end of chord mash.
 
|*-*-*-*-*-*-*-*-*-*-*-*-*-*-*-*-|  Hi-Hat
|--------*---------------*-------| Snare
|*---------------*---*-----------|  Bass
Comments