Misc Comp Games - Oceanside Theme From Final Fantasy Chords & Tabs

 

Oceanside Theme From Final Fantasy Chords & Tabs

Misc Comp Games Chords & Tabs

Version: 1 Type: Tab 1 rating
1 star 2 stars 3 stars 4 stars 5 stars
comments

Oceanside Theme From Final Fantasy Tab

Oceanside
From: Final Fantasy VIII(videogame)

This is an arrangement for the song "Oceanside" from Final
Fantasy VIII. It's this song that plays on Balamb city and
other cities. This is actually my first tab so feel free to
correct any errors.

                     

 


          
E-||-----------2----------2--|-----------2----------2--|
B-||--------0-------0--------|--------0-------0--------|
G-||*----2-------------2-----|-----2-------------2-----|
D-||*-0----------------------|--0----------------------|
A-||-------------------------|-------------------------|
E-||-------------------------|-------------------------|


      
|---------0----------0--|-----------3----------3--|-----------2----------2-|
|------0-------0--------|--------0-------0--------|--------0-------0-------|
|---0-------------0-----|-----2-------------2-----|-----2-------------2----|
|0----------------------|--0----------------------|--0---------------------|
|-----------------------|-------------------------|------------------------|
|-----------------------|-------------------------|------------------------|


     
|---------2----------2--|-----------0----------0-|--3--------2--------0----|
|------0-------0--------|--------0-------0-------|--------3--------3-------|
|---2-------------2-----|-----0-------------0----|-----4--------2--------3-|
|0----------------------|--0---------------------|--0--------0--------5----|
|-----------------------|------------------------|-------------------------|
|-----------------------|------------------------|-------------------------|


    
|---------2----------2--|------------2h3p2--------2--|
|------2-------2--------|--------2----------2--------|
|---2-------------2-----|-----2----------------2-----|
|0----------------------|--0-------------------------|
|-----------------------|----------------------------|
|-----------------------|----------------------------|


     
|---------0----------0--|-----------3--------3-----|-----------2----------2--|
|------3-------3--------|-----2--------2--------2--|--------0-------0--------|
|---0-------------0-----|--------4--------4--------|-----2-------------2-----|
|0----------------------|--0-----------------------|--0----------------------|
|-----------------------|--------------------------|-------------------------|
|-----------------------|--------------------------|-------------------------|

[ Tab from: http://www.guitartabs.cc/tabs/m/misc_comp_games/oceanside_theme_from_final_fantasy_tab.html ]
     
|5--------3--------2-----|--3--------2--------3-----|-)0----------------|
|------0-----0-----------|--------0--------0-----0--|-(0----------------|
|---5-----------5-----5--|-----0--------0-----------|-)0----------------|
|0-----------------------|--2-----------------------|-(2----------------|
|------------------------|--------------------------|-------------------|
|------------------------|--------------------------|-------------------|


                                         
      
|2--------2----------2--|--5--------5----------5--|--7--------7----------7--|
|---3----------3--------|-----6----------6--------|-----8----------8--------|
|------2----------2-----|--------5----------5-----|--------7----------7-----|
|0----------------------|--0----------------------|--0----------------------|
|-----------------------|-------------------------|-------------------------|
|-----------------------|-------------------------|-------------------------|


                           
     
|5--------5----------5--|-----------2----------2--|--5--------5----------5--|
|---7----------7--------|--------3-------3--------|-----6----------6--------|
|------7----------7-----|-----2-------------2-----|--------5----------5-----|
|0----------------------|--0----------------------|--0----------------------|
|-----------------------|-------------------------|-------------------------|
|-----------------------|-------------------------|-------------------------|


 
 
|7--------7----------7--|--5----14-------------|-----------3-------------|
|---8----------8--------|-------------15-------|--------3-------3-----3--|
|------7----------7-----|-------------------14-|-----4-------------4-----|
|0----------------------|--0-------------------|--0----------------------|
|-----------------------|----------------------|-------------------------|
|-----------------------|----------------------|-------------------------|
                             


 
 
|5--------3-------------|-----------3-------------|--5--------3-------------|
|---3----------3-----3--|--------3-------3-----3--|-----3----------3-----3--|
|------4----------4-----|-----3-------------3-----|--------3----------3-----|
|0----------------------|--0----------------------|--0----------------------|
|-----------------------|-------------------------|-------------------------|
|-----------------------|-------------------------|-------------------------|


      
|---------2----------2--|----------2----------2--|-----------0--------------|
|------0----------0-----|-------0----------0-----|--------3--------3-----3--|
|---2----------2--------|----2----------2--------|-----3--------------3-----|
|0----------------------|------------------------|--0-----------------------|
|-----------------------|------------------------|--------------------------|
|-----------------------|------------------------|--------------------------|


        
|)3----------------||
|(3----------------||
|)3---------------*||
|(0---------------*||
|------------------||
|------------------||




Tabbed by: Joseph Israel Manuel (with a little help from Michael Billones)
Email@: joel_ladylover@lycos.com
    
                                      E N J O Y !!!



]
Comments