Misc Comp Games - Mario Underworld Chords & Tabs

 

Mario Underworld Chords & Tabs

Misc Comp Games Chords & Tabs

Version: 1 Type: Tab 0 ratings
1 star 2 stars 3 stars 4 stars 5 stars
comments

Mario Underworld Tab

Mario underworld

e--------------------------------
B----13--10--11-------13--10--11-
G--------------------------------
D-10---7---8-------10---7---8----
A--------------------------------
E--------------------------------
[ Tab from: http://www.guitartabs.cc/tabs/m/misc_comp_games/mario_underworld_tab.html ]
e--------------------------------
B---6---3---4-------6---3---4----
G--------------------------------
D-3---0---1-------3---0---1------
A--------------------------------
E--------------------------------
	
e-----------------------2-1--0-6-5-4--------
B-5-3-2-1--4--3-----2--1------------4-0-----
G---------------1-0--------------------3-2-1
Comments