Misc Comp Games - Mario Chords & Tabs

 

Mario Chords & Tabs

Misc Comp Games Chords & Tabs

Version: 1 Type: Tab 4 ratings
1 star 2 stars 3 stars 4 stars 5 stars
comments

Mario Tab

Super Mario Theme
(the scarier sounding one)

it's only the beginning of it... i can't figure out the rest of it.. 
but i was messing aound with it one day and it's pretty cool
[ Tab from: http://www.guitartabs.cc/tabs/m/misc_comp_games/mario_tab.html ]
------------------------------
------------------------------
------------------------------
------------------------------      for the 1st part...
----3-3---------3-3-----------
--------5-5-6-6-----5-5-6-6---

------------------------------
------------------------------
------------------------------      then this...
------------------------------
----1-1---------1-1-----------
--------3-3-4-4-----3-3-4-4---

it souns cool on the bass too... screw around with it... and hopefully i'll figure 
out the rest soon

peace:
CreAper
Comments