Misc Comp Games - Legend Of Zelda Kakariko Village Chords & Tabs

 

Legend Of Zelda Kakariko Village Chords & Tabs

Misc Comp Games Chords & Tabs

Version: 1 Type: Tab 0 ratings
1 star 2 stars 3 stars 4 stars 5 stars
comments

Legend Of Zelda Kakariko Village Tab

----------------
KAKARIKO VILLAGE THEME
(Music from The Legend of Zelda: A Link to the Past)
For guitar

TABBED BY:
Robert Lee 
email: aterdraconisband@hotmail.com
music: www.mp3.com/aterdraconis
----------------

This is just the beginning of the song, I might tab the rest later.  I just figured it out by accident so I figured I'd post it.

Standard tuning, transposed 1 whole step down (ie. E = D, G = F, etc.)



ARPEGGIO CHORDS:
(this is the part the strings play in the beginning.  just the chords formed are shown.)
0-----3--1--------
1--1--1--3--------
0--2--2--0--------
---2--0-----------
3--0--------------
---------3--------

TIP: On the last chord, I use my ring finger for the base note of the chord and place it ahead of time.  You can fret the others right after.


[ Tab from: http://www.guitartabs.cc/tabs/m/misc_comp_games/legend_of_zelda_kakariko_village_tab.html ]
ONE OF MANY possible alternate arpeggios:
------3--1--------
5--1--1--3--------
5--2--2--0--------
5--2--0-----------
3--0--------------
---------3--------



ONE OF MANY possible arpeggios in standard tuning (not transposed):
(the last chord is pretty tough, but it's 100% accurate.)
------------------
3-----6--4--------
3--3--3--5--------
3--5--5--3--------
1--5--3-----------
---3-----1--------



MELODY:
(for standard tuning, just transpose the frets accordingly)
---------------3-|----------------3-|--3-5-------5-3-----|----------------
--------5--------|----------5-------|------------------5-|--5---5---3-----
--5----------5---|----5---------5---|--------4-----------|------------5---
5-----5----------|--5-----5---------|--------------------|----------------
-----------------|------------------|--------------------|----------------
-----------------|------------------|--------------------|----------------
Comments