Misc Comp Games - Grandia Theme Chords & Tabs

 

Grandia Theme Chords & Tabs

Misc Comp Games Chords & Tabs

Version: 1 Type: Tab 0 ratings
1 star 2 stars 3 stars 4 stars 5 stars
comments

Grandia Theme Tab

   
Game Title:  Grandia
Song Title:  I honestly don’t know the title of this song
                 “theme from Grandia” will do

This theme is heard in some sentimental parts of the game.  You can hear the long version of the piece in the part in which Justin reads his mothers’ letter(the pier scenario before Jstin gets in the Steam Ship).  It is a very beautiful piece and happens to be my favorite in the game.  The violin plays the lead part while the piano does the backup.  There is actually no guitar part in the piece, but I managed to put a guitar part out of the piano.  There might be some errors in the lead part so feel free to correct me.  If you have a better tab for the guitar1 part feel free to contact me.

The song goes like this (standard 4/4 beat):

Guitar 1:

          Dsus2             Dsus2/C#          Dsus2/B           Dsus2/A
-|------|---------0-------|---------0-------|---------0-------|---------0----------|------|-----3-----3---3-|-----3-----3---3-|-----3-----3---3-|-----3-----3---3---
-|------|---2---2-----2---|---2---2-----2---|---2---2-----2---|---2---2-----2-----
-|------|-0---------------|-----------------|-----------------|--------------------|------|-----------------|-4---------------|-2---------------|-0-----------------
-|------|-----------------|-----------------|-----------------|-------------------

Guitar 2:

-|-5----|-7-------5-------|---------5-3---2-|-2-----------3-5-|-2-------2-0-2-----
-|------|-----------------|-----------------|-----------------|-------------------
-|------|-----------------|-----------------|-----------------|-------------------
-|------|-----------------|-----------------|-----------------|-------------------
-|------|-----------------|-----------------|-----------------|-------------------
-|------|-----------------|-----------------|-----------------|-------------------

Guitar 1:

   GM7               GM7/F#            Em7               A7sus,  A7
-|---------2-------|---------2-------|---------2-------|--------------------------
-|-----0-----0---0-|-----2-----2---2-|-----2-----2---2-|-----3---2----------------
-|---0---0-----0---|---2---2-----2---|---0---0-----0---|---0---0------------------
-|-----------------|-----------------|-----------------|--------------------------
-|-----------------|-----------------|-----------------|-0------------------------
-|-3---------------|-2---------------|-0---------------|--------------------------

Guitar 2:
[ Tab from: http://www.guitartabs.cc/tabs/m/misc_comp_games/grandia_theme_tab.html ]
-|-2-------------3-5-2-------------3-5-7---------------|-----------5--------------
-|-----------------|-----------------|-------7-7-5---3-|-5------------------------
-|-----------------|-----------------|-----------------|---------2---2------------
-|-----------------|-----------------|-----------------|--------------------------
-|-----------------|-----------------|-----------------|--------------------------
-|-----------------|-----------------|-----------------|--------------------------

Guitar 1:

   Dsus2             Dsus2/C#          Dsus/B            BbM7
-|---------0-------|---------0-------|---------0-------|--------1-----------------
-|-----3-----3---3-|-----3-----3---3-|-----3-----3---3-|-----3-----3---3----------
-|---2---2-----2---|---2---2-----2---|---2---2-----2---|---2---2-----2------------
-|-0---------------|-----------------|-----------------|--------------------------
-|-----------------|-4---------------|-2---------------|-1------------------------
-|-----------------|-----------------|-----------------|--------------------------

Guitar 2:

-|-7-------5-------|---------7-9-----|-10-9-7-7--------|-6---------------3--------
-|-----------------|-----------------|-----------------|--------------------------
-|-----------------|-----------------|-----------------|--------------------------
-|-----------------|-----------------|-----------------|--------------------------
-|-----------------|-----------------|-----------------|--------------------------
-|-----------------|-----------------|-----------------|--------------------------

Guitar 1:

   Dsus2             GM7               Em7               A7
-|---------0-------|---------2-------|---------2-------|-0------------------------
-|-----3-----3---3-|-----0-----0---0-|-----2-----2---2-|-2------------------------
-|---2---2-----2---|---0---0-----0---|---0---0-----0---|-0------------------------
-|-0---------------|-----------------|-----------------|-2------------------------
-|-----------------|-----------------|-----------------|-0------------------------
-|-----------------|-3---------------|-0---------------|--------------------------

Guitar 2:

-|-2-------3-----5-|-7-------9-9s10--|-10--------------|-9------------------------
-|-----------------|-----------------|-----------------|--------------------------
-|-----------------|-----------------|-----------------|--------------------------
-|-----------------|-----------------|-----------------|--------------------------
-|-----------------|-----------------|-----------------|--------------------------
-|-----------------|-----------------|-----------------|--------------------------



Tabbed by:  Joseph Israel Manuel
Email: joel_ladylover@lycos.com
Final Words:  Actually, Ikept on requesting this piece since February in some anime and videogame music tabs, and I ended up tabbing it myself.

ENJOY!!!
Comments