Misc Comp Games - Goldeneye 007 Cradle Chords & Tabs

 

Goldeneye 007 Cradle Chords & Tabs

Misc Comp Games Chords & Tabs

Version: 1 Type: Tab 1 rating
1 star 2 stars 3 stars 4 stars 5 stars
comments

Goldeneye 007 Cradle Tab

   
  ____    ____   ________  _______|\
 / __ \  / __ \ |  ____  ||_________|
| |  | || |  | ||_/   / / |______/ 
|GoldenEye|  | |    / /___/ /
| |  | || |  | |   | ||____/
| |__| || |__| |   | |
 \____/  \____/    |_|		(N64)

Cradle Theme



Tabbed by Paul Cosgrove (spinynorman25@hotmail.com) and 
Stephen Cosgrove (sjlc2k@hotmail.com) from the original
game soundtrack by Graeme Norgate & Grant Kirkhope.

The '|' lines in the guitar parts indicate a PAUSE,
NOT the end of a bar.  They DO indicate bars in the drum tab.



Guitar 1 (Gtr2 plays an E? right at the start)
INTRO(X1):
E|---------------|---------------|---------------|
B|---------------|---------------|---------------|
G|---------------|---------------|---------------|
D|---------------|---------------|---------------|
A|-----0-1-------|-----0-1-------|-----0-1-0-----|
E|-0-3-----------|-0-3-----------|-0-3-------3---|

E|---------------|---------------|---------------|
B|---------------|---------------|---------------|
G|---------------|---------------|---------------|
D|---------------|---------------|---------------|
A|-----0-1-0-----|-----0-1-0-----|-----0-1-0-----|
E|-0-3-------3-0-|-0-3-------3-0-|-0-3-------3-0-|

E|-------------------------------------------------------------------------|
B|-------------------------------------------------------------------------|
G|-------------------------------------------------------------------------|
D|-------------------------------------------------------------------------|
A|-----0-1-0-------0-1-0-------0-1-0-------0-1-0-------0-1-0-------0-1-0---|
E|-0-3-------3-0-3-------3-0-3-------3-0-3-------3-0-3-------3-0-3-------3-|

SECTION 1(X6):
   E (Gtr2)
E|---------------------------------|
B|---------------------------------|
G|---------------------------------|
D|---------------------------0-0-2-|
A|---2-2---0-2---2-2---0-2---------|
E|-0-----0-----0-----0-----0-------|

E|---------------------------------|
B|---------------------------------|
G|---------------------------------|
D|---------------------------------|
A|---2-2---0-2---2-2---0-2---1---1-|
E|-0-----0-----0-----0-----0---0---|

E|---------------------------------|
B|---------------------------------|
G|---------------------------------|
D|---------------------------0-0-2-|
A|---2-2---0-2---2-2---0-2---------|
E|-0-----0-----0-----0-----0-------|

E|---------------------------------|
B|---------------------------------|
G|---------------------------------|  X2 BEFORE Gtr2
D|---------------------------------|  THEN X4 before Section 2
A|---2-2---0-2---2-2---0-2---2---2-|  (X6 in TOTAL)
E|-0-----0-----0-----0-----0---0---|  

SECTION 2(X4):
E|---------------------------------|
B|---------------------------------|
G|---------------------------------|
D|---------------------------2-2-4-|
A|---4-4---2-4---4-4---2-4---------|
E|-2-----2-----2-----2-----2-------|

E|---------------------------------|
B|---------------------------------|
G|---------------------------------|
D|---------------------------------|
A|---4-4---2-4---4-4---2-4---3---3-|
E|-2-----2-----2-----2-----2---2---|

E|---------------------------------|
B|---------------------------------|
G|---------------------------------|
D|---------------------------2-2-4-|
A|---4-4---2-4---4-4---2-4---------|
E|-2-----2-----2-----2-----2-------|

E|---------------------------------|
B|---------------------------------|
G|---------------------------------|
D|---------------------------------|
A|---4-4---2-4---4-4---2-4---4---4-|
E|-2-----2-----2-----2-----2---2---|



Guitar 2 (these section numbers correspond to the sections for Gtr1)
INTRO:
E|---------------|---------------|---------------|
B|---------------|---------------|---------------|
G|---0-2-3-------|---0-2-3-------|---0-2-3-2-0---|
D|-2-------------|-2-------------|-2-------------|
A|---------------|---------------|---------------|
E|---------------|---------------|---------------|

E|---------------|---------------|---------------|
B|---------------|---------------|---------------|
G|---0-2-3-2-0---|---0-2-3-2-0---|---0-2-3-2-0---|
D|-2-----------2-|-2-----------2-|-2-----------2-|
A|---------------|---------------|---------------|
E|---------------|---------------|---------------|
[ Tab from: http://www.guitartabs.cc/tabs/m/misc_comp_games/goldeneye_007_cradle_tab.html ]
E|-----------------------------------------------------------------------|
B|-----------------------------------------------------------------------|
G|-0-2-3-2-0---0-2-3-2-0---0-2-3-2-0---0-2-3-2-0---0-2-3-2-0---0-2-3-2-0-|
D|-----------2-----------2-----------2-----------2-----------2-----------|
A|-----------------------------------------------------------------------|
E|-----------------------------------------------------------------------|

SECTION 1(X1):
E|------------|------------|---------------|
B|------------|------------|-------------0-|
G|-------0----|-------2----|-------0-2-3---|
D|---2-4------|---2-4------|---2-4---------|
A|-2----------|-2----------|-2-------------|
E|------------|------------|---------------|

E|---0-2-3----|---0-2-5----|---0-2-3-5-6-7-|
B|-0----------|-0----------|-0-----------0-|
G|-------0----|-------2----|-------0-2-3---|
D|---2-4------|---2-4------|---2-4---------|
A|-2----------|-2----------|-2-------------|
E|------------|------------|---------------|

Section 3(X2):
E|-----|-------|----|-----|-----|-------|-----|-----|
B|-----|-------|----|-----|-----|-------|-----|-----|
G|---1-|---2-1-|--1-|---2-|---1-|---2-1-|---1-|---2-|
D|-4---|-4-----|4---|-4---|-4---|-4-----|-4---|-4---|
A|-----|-------|----|-----|-----|-------|-----|-----|
E|-----|-------|----|-----|-----|-------|-----|-----|



Guitar 3
Section 3 (plays over repeat of Gtr2 Section 3): 
E|-----1-0-------|-------|-----1-0-------|---------|
B|-----------1-2-|-------|-----------1-2-|---------|
G|---2-----2-----|-2-1---|---2-----2-----|-2-1-----|
D|-4-------------|-----4-|-4-------------|-----3-4-|
A|---------------|-------|---------------|---------|
E|---------------|-------|---------------|---------|



Drums

  1 
HH|-x---x-x-x-x-x-o-|-x-x-x-x-o---x-x-|-x-x-x-x-o---x-x-|-x-x-o---x-x-x-x-|
Ba|-x-------x-------|-x-------x-------|-x-------x-------|-x-------x-------|
Sn|-----x-------x---|-----x-------x---|-----x-------x---|-----x-------x---|
    1 + 2 + 3 + 4 +   1 + 2 + 3 + 4 +   1 + 2 + 3 + 4 +   1 + 2 + 3 + 4 + 
    ^E? (Gtr 2)

  5     >Gtr 1 starts here>>
HH|-o---x-x-x-x-o---|-x-x-x-x-o---x-x-|-x-x-x-x-o---x-x-|-x-x-o---x-x-x-x-|
Ba|-x-------x-------|-x-------x-------|-x-------x-------|-x-------x-------|
Sn|-----x-------x---|-----x-------x---|-----x-------x---|-----x-------x---|
    1 + 2 + 3 + 4 +   1 + 2 + 3 + 4 +   1 + 2 + 3 + 4 +   1 + 2 + 3 + 4 + 
        

  9
HH|-x-x-o---x-x-x-x-|-o---x-x-x-x-o---|-x-x-x-x-o---x-x-|-x-x-o---x-x-x-x-|
Ba|-x-------x-------|-x-------x-------|-x-------x-------|-x-------x-------|
Sn|-----x-------x---|-----x-------x---|-----x-------x---|-----x-------x---|
    1 + 2 + 3 + 4 +   1 + 2 + 3 + 4 +   1 + 2 + 3 + 4 +   1 + 2 + 3 + 4 + 

  13
HH|-x-x-x-x-o---x-x-|-x-x-x-x-o---x-x-|-x-x-o---x-x-x-x-|-x-x-o---x-x-x-x-|
Ba|-x-------x-------|-x-------x-------|-x-------x-------|-x-------x-------|
Sn|-----x-------x---|-----x-------x---|-----x-------x---|-----x-------x---|
    1 + 2 + 3 + 4 +   1 + 2 + 3 + 4 +   1 + 2 + 3 + 4 +   1 + 2 + 3 + 4 + 

  17                                  >Section 1>>
HH|-x---x-x-x-x-x-o-|-x-x-o---x-x-x-x-|-----------------|-----------------|
Ba|-x-------x-------|-x-------x-------|-x-------x-------|-x-------x-------|
Sn|-----x-------x---|-----x-------x---|-----x-------x---|-----x-------x---|
    1 + 2 + 3 + 4 +   1 + 2 + 3 + 4 +   1 + 2 + 3 + 4 +   1 + 2 + 3 + 4 + 
                                        ^E? (gtr 2)

  21
HH|-----------------|-----------------|-----------------|-----------------|
Ba|-x-------x-------|-x-------x-------|-x-------x-------|-x-------x-------|
Sn|-----x-------x---|-----x-------x---|-----x-------x---|-----x-------x---|
    1 + 2 + 3 + 4 +   1 + 2 + 3 + 4 +   1 + 2 + 3 + 4 +   1 + 2 + 3 + 4 + 

  25
HH|-----------------|-----------------|-----------------|-----------------|
Ba|-x-------x-------|-x-------x-------|-x-x-------------|-----------------|
Sn|-----x-------x---|-----x-------x---|-----x-------x---|-----x-------x---|
    1 + 2 + 3 + 4 +   1 + 2 + 3 + 4 +   1 + 2 + 3 + 4 +   1 + 2 + 3 + 4 + 

  29
HH|-----------------|-----------------|-----------------|-----------------|
Ba|-x-x-------------|-----------------|-x-x-------------|-----------------|
Sn|-----x-------x---|-----x-------x---|-----x-------x---|-----x-------x---|
    1 + 2 + 3 + 4 +   1 + 2 + 3 + 4 +   1 + 2 + 3 + 4 +   1 + 2 + 3 + 4 + 

  33                              >Gtr 2 in here>>
HH|-----------------|-----------------|-x---x---x---x---|-x---x---x---x---|
Ba|-x-x-------------|-----------------|-x-x---x---x-----|---x-----x-x-----|
Sn|-x-x-x-x-x-x-x-x-|-x-x-x-x-x-x-x-x-|-----x-------x---|-----x-------x---|
    1 + 2 + 3 + 4 +   1 + 2 + 3 + 4 +   1 + 2 + 3 + 4 +   1 + 2 + 3 + 4 + 

                                      >Repeat the last 2 bars until the break,
                                       then do the whole thing over again,
                                       as many times as necessary until the
                                       end>>

                                      >x = hit
				       o = hihat open>>
Comments