Misc Comp Games - Glorious Victory Solo Chords & Tabs

 

Glorious Victory Solo Chords & Tabs

Misc Comp Games Chords & Tabs

Version: 1 Type: Tab 0 ratings
1 star 2 stars 3 stars 4 stars 5 stars
comments

Glorious Victory Solo Tab

   
Dead Or Alive 2 (Playstation 2): Glorious Victory.
Guitar solo part.

This is my first tab, and my musical english ain't all that,
but please bear with me.. It's a really cool riff!
I don't know anything about typing tabs, so the rythm here
probably suxx bigtime. I think u gotta hear the song to
understand my tabs.

riff a:
e----------------------------------|---------------------------|
B----------------------------------|---------------------------|
G-----------------5----------------|---------------------------|
D---------5---7-----8-7-5-7-5------|-------------10------------|
A-5-7-8-5---5---5-------------8-7--|-----5---7-8----7-8-10-7---|
E----------------------------------|-6-8---6-----------------8-|

                               play twice


[ Tab from: http://www.guitartabs.cc/tabs/m/misc_comp_games/glorious_victory_solo_tab.html ]
fill 1                 *          fill 2              *
e--------------18---17h18--17----|--------------18-17h18-------------|
B-15---17--18-----------------20-|-15---17--18-----------18--17------|
G--------------------------------|-------------------------------19--|
D--------------------------------|-----------------------------------|
A--------------------------------|-----------------------------------|
E--------------------------------|-----------------------------------|

* = bend up to 20 and release


First play fill 1 over riff a, then play fill 2 over riff a.

U kinda need 2 guitars (and two guitar players)
or a recording/playback device

I'm not sure this is correct, I haven't heard the song in a while,
and I didn't have my guitar at hand when I tabbed it,
but I think I got it right. I will check it when I get to
hear the song again and have a guitar available.

Feel free to email corrections to me at morten_aaberg@hotmail.com
Comments