Misc Comp Games - Full Throttle Chords & Tabs

 

Full Throttle Chords & Tabs

Misc Comp Games Chords & Tabs

Version: 1 Type: Tab 1 rating
1 star 2 stars 3 stars 4 stars 5 stars
comments

Full Throttle Tab

That is just a begining riff from that song.

E:----------------------------------------
B:----------------------------------------
G:----------------------------------------  Play 2x
D:----------------------------------------
A:--------1---------3---------4-3-1-------
E:--3-1-3-----3-1-3-----3-1-3-------3-1-3-
[ Tab from: http://www.guitartabs.cc/tabs/m/misc_comp_games/full_throttle_tab.html ]
E:----------------------------------------
B:----------------------------------------
G:----------------------------------------  Play 2x
D:----------------------------------------
A:--------3---------5---------6-5-3-------
E:--5-3-5-----5-3-5-----5-3-5-------5-3-5-

Thats all, maybe its not absolutelly correct, but sounds good.

If anybody knows how it continues, mail me to Michailjovic@atlas.cz

Mike from Czech rep.
Comments