Misc Comp Games - Final Fantasy Ix Theme Chords & Tabs

 

Final Fantasy Ix Theme Chords & Tabs

Misc Comp Games Chords & Tabs

Version: 1 Type: Tab 0 ratings
1 star 2 stars 3 stars 4 stars 5 stars
comments

Final Fantasy Ix Theme Tab

Title:  Final Fantasy IX Theme
Tabbed by:  Sean Buchholz  (HoosierIU25@hotmail.com)

Standard Tuning (EADGBe)

This is my first tab.  It's also the first song I learned how to play; I figured it out by sitting on my bed listening to my brother play FFIX, so it's bound to have an error or two, but in my opinion, it sounds pretty damn close.  It's not that difficult, but you may want to listen to it on the game or download a midi to figure out the rhythms.

Have fun!!


   e ||------------------------------------------------------------
   B ||-----------0h1-0-------------------------0h1-0--------------
   G ||------0-2--------2-0--2--------------0-2-------22-1-2~~~~~~-
   D ||-0-2h3-------------------320---0-2h3------------------------
   A ||-----------------------------3------------------------------
   E ||------------------------------------------------------------
[ Tab from: http://www.guitartabs.cc/tabs/m/misc_comp_games/final_fantasy_ix_theme_tab.html ]
   e ||------------------------------------------------------------
   B ||------------0h1-0-------------------------------------------
   G ||-------0-2---------2-0--2------------0---------2------------
   D ||-0-2h3--------------------320----3-3---3-2-0-----0-2h3-2----
   A ||-------------------------------3--------------3-------------
   E ||------------------------------------------------------------

   e ||-----------------
   B ||-----------------
   G ||-----------------
   D ||-0-0---0-0-------  
   A ||-----3-----------
   E ||-----------------

   e ||------------------------------------------------------------
   B ||-3---3-1-0-------------0-1-1~~~~--3---3-1-0-----------------
   G ||---2-------2-0-2---0-2--------------2-------2-0---2---------
   D ||-----------------3------------------------------3---2-0---0-
   A ||--------------------------------------------------------3---
   E ||------------------------------------------------------------     x2



	Repeat from the beginning infinitely.

Comments