Misc Comp Games - Final Fantasy 8 Theme Chords & Tabs

 

Final Fantasy 8 Theme Chords & Tabs

Misc Comp Games Chords & Tabs

Version: 1 Type: Tab 0 ratings
1 star 2 stars 3 stars 4 stars 5 stars
comments

Final Fantasy 8 Theme Tab

Final Fantasy VIII (Breezy)                       


Tabbed using www.GuitarAndBass.co.uk Transcription Tools v1.12
--------------------------------------------------------------
                                                       
E||-----------2----------2--|-----------2----------2--|
B||--------0-------0--------|--------0-------0--------|
G||-----2-------------2-----|-----2-------------2-----|
D||--0----------------------|--0----------------------|
A||-------------------------|-------------------------|
E||-------------------------|-------------------------|


                                                    
-----------0----------0--|-----------3----------3--|
--------0-------0--------|--------0-------0--------|
-----0-------------0-----|-----0-------------0-----|
--0----------------------|--0----------------------|
-------------------------|-------------------------|
-------------------------|-------------------------|


                                                    
-----------2----------2--|-----------2----------2--|
--------0-------0--------|--------0-------0--------|
-----2-------------2-----|-----2-------------2-----|
--0----------------------|--0----------------------|
-------------------------|-------------------------|
-------------------------|-------------------------|


                                                     
-----------0----------0--|--3--------2--------0-----|
--------0-------0--------|-----0--3--------3--------|
-----0-------------0-----|--------------2-----0--3--|
--0----------------------|--0--------0--------------|
-------------------------|--------------------------|
-------------------------|--------------------------|


                                                      
-----------2----------2--|-----------2h3-2--------2--|
--------2-------2--------|--------2---------2--------|
-----2-------------2-----|-----2---------------2-----|
--0----------------------|--0------------------------|
-------------------------|---------------------------|
-------------------------|---------------------------|


                                                     
-----------0----------0--|-----------3--------3-----|
--------3-------3--------|-----2--0-----2--0-----2--|
-----0-------------0-----|--------------------------|
--0----------------------|--0-----------------------|
-------------------------|--------------------------|
-------------------------|--------------------------|


                                                     
-----------2----------2--|--5--------3--------2-----|
--------2-------2--------|--------0-----0--1-----1--|
-----2-------------2-----|-----5--------------------|
--0----------------------|--0-----------------------|
-------------------------|--------------------------|
-------------------------|--------------------------|


                                                 
--3--------2--------3-----|---------------------|
--------0--------0--------|----0----------------|
-----0--------0--------0--|----6----------------|
--2--------0--------0-----|--2------------------|
--------------------------|--7------------------|
--------------------------|---------------------|


                                                    
--2--------2----------2--|--5--1-----5----1-----5--|
-----3----------3--------|--------1----------1-----|
--------2----------2-----|-------------------------|
--0----------------------|--0----------------------|
-------------------------|-------------------------|
-------------------------|-------------------------|


                                                    
--7--------7----------7--|--5--------5----------5--|
-----8----------8--------|-----7----------7--------|
--------7----------7-----|--------7----------7-----|
--0----------------------|-------------------------|
-------------------------|--5----------------------|
-------------------------|-------------------------|


                                                    
-------------------------|--5--------5----------5--|
--7--------7----------7--|-----6----------6--------|
-----7----------7--------|--------5----------5-----|
--0-----7----------7-----|-------------------------|
-------------------------|--5----------------------|
-------------------------|-------------------------|


                                                    
--7--3-----7----3-----7--|--5----14----10----------|
--------3----------3-----|-------------------10----|
-------------------------|-------------------------|
-------------------------|-------------------------|
--5----------------------|-------------------------|
-------------------------|-------------------------|


                                                     
--------------------------|--5--------3-------------|
------------8-------0-----|-----3--0-------3--0--3--|
---------7-------7-----7--|-------------------------|
------9-------------------|--0----------------------|
--------------------------|-------------------------|
--10----------------------|-------------------------|


                                                    
-----------3-------------|--5--------3-------------|
--------3-------3-----3--|-----3----------3-----3--|
-----3-------------3-----|--------3----------3-----|
--0----------------------|--0----------------------|
-------------------------|-------------------------|
-------------------------|-------------------------|


                                                   
-----------2----------2--|----------2----------2--|
--------0----------0-----|-------0----------0-----|
-----2----------2--------|----2----------2--------|
--0----------------------|------------------------|
-------------------------|------------------------|
-------------------------|------------------------|


                                                     
-----------0-------------|------3-------------------|
--------3-------3-----3--|----3---------------------|
-----3-------------3-----|----4---------------------|
--0----------------------|--3-----------------------|
-------------------------|--5-----------------------|
-------------------------|--------------------------|

[ Tab from: http://www.guitartabs.cc/tabs/m/misc_comp_games/final_fantasy_8_theme_tab.html ]
                                                    
-----------2----------2--|-----------2----------2--|
--------0-------0--------|--------0-------0--------|
-----2-------------2-----|-----2-------------2-----|
--0----------------------|--0----------------------|
-------------------------|-------------------------|
-------------------------|-------------------------|


                                                    
-----------0----------0--|-----------3----------3--|
--------0-------0--------|--------0-------0--------|
-----0-------------0-----|-----0-------------0-----|
--0----------------------|--0----------------------|
-------------------------|-------------------------|
-------------------------|-------------------------|


                                                    
-----------2----------2--|-----------2----------2--|
--------0-------0--------|--------0-------0--------|
-----2-------------2-----|-----2-------------2-----|
--0----------------------|--0----------------------|
-------------------------|-------------------------|
-------------------------|-------------------------|


                                                     
-----------0----------0--|--3--------2--------0-----|
--------0-------0--------|-----0--3--------3--------|
-----0-------------0-----|--------------2-----0--3--|
--0----------------------|--0--------0--------------|
-------------------------|--------------------------|
-------------------------|--------------------------|


                                                      
-----------2----------2--|-----------2-3-2--------2--|
--------2-------2--------|--------2---------2--------|
-----2-------------2-----|-----2---------------2-----|
--0----------------------|--0------------------------|
-------------------------|---------------------------|
-------------------------|---------------------------|

Tabbed using www.GuitarAndBass.co.uk Transcription Tools v1.12
--------------------------------------------------------------
                                                     
-----------0----------0--|-----------3--------3-----|
--------3-------3--------|-----2--0-----2--0-----2--|
-----0-------------0-----|--------------------------|
--0----------------------|--0-----------------------|
-------------------------|--------------------------|
-------------------------|--------------------------|


                                                     
-----------2----------2--|--5--------3--------2-----|
--------2-------2--------|--------0-----0--1-----1--|
-----2-------------2-----|-----5--------------------|
--0----------------------|--0-----------------------|
-------------------------|--------------------------|
-------------------------|--------------------------|


                                                 
--3--------2--------3-----|---------------------|
--------0--------0--------|----0----------------|
-----0--------0--------0--|----6----------------|
--2--------0--------0-----|--2------------------|
--------------------------|--7------------------|
--------------------------|---------------------|


                                                    
--2--------2----------2--|--5--1-----5----1-----5--|
-----3----------3--------|--------1----------1-----|
--------2----------2-----|-------------------------|
--0----------------------|--0----------------------|
-------------------------|-------------------------|
-------------------------|-------------------------|


                                                    
--7--------7----------7--|--5--------5----------5--|
-----8----------8--------|-----7----------7--------|
--------7----------7-----|--------7----------7-----|
--0----------------------|-------------------------|
-------------------------|--5----------------------|
-------------------------|-------------------------|


                                                    
-------------------------|--5--------5----------5--|
--7--------7----------7--|-----6----------6--------|
-----7----------7--------|--------5----------5-----|
--0-----7----------7-----|-------------------------|
-------------------------|--5----------------------|
-------------------------|-------------------------|


                                                    
--7--3-----7----3-----7--|--5----14----10----------|
--------3----------3-----|-------------------10----|
-------------------------|-------------------------|
-------------------------|-------------------------|
--5----------------------|-------------------------|
-------------------------|-------------------------|


                                                     
--------------------------|--5--------3-------------|
------------8-------0-----|-----3--0-------3--0--3--|
---------7-------7-----7--|-------------------------|
------9-------------------|--0----------------------|
--------------------------|-------------------------|
--10----------------------|-------------------------|


                                                    
-----------3-------------|--5--------3-------------|
--------3-------3-----3--|-----3----------3-----3--|
-----3-------------3-----|--------3----------3-----|
--0----------------------|--0----------------------|
-------------------------|-------------------------|
-------------------------|-------------------------|


                                                   
-----------2----------2--|----------2----------2--|
--------0----------0-----|-------0----------0-----|
-----2----------2--------|----2----------2--------|
--0----------------------|------------------------|
-------------------------|------------------------|
-------------------------|------------------------|


                                                                     
-----------0-------------|------3---------------|------------------||
--------3-------3-----3--|----3-----------------|------------------||
-----3-------------3-----|----4-----------------|------------------||
--0----------------------|--3-------------------|------------------||
-------------------------|--5-------------------|------------------||
-------------------------|----------------------|------------------||

Tabbed using www.GuitarAndBass.co.uk Transcription Tools v1.12
--------------------------------------------------------------
Comments