Misc Comp Games - Contra Base Chords & Tabs

 

Contra Base Chords & Tabs

Misc Comp Games Chords & Tabs

Version: 1 Type: Tab 0 ratings
1 star 2 stars 3 stars 4 stars 5 stars
comments

Contra Base Tab

   
Song: Contra base
Band: N/A
Tabbed by: SpRiNgWaFfLe [springwaffle@comcast.net]

Main part
              x3
e---------------|---------------
b-----2---5-4-2-|-----2---4-5-6-
g-3-3---3-------|-3-3---3-------
d---------------|---------------
a---------------|---------------
e---------------|---------------

              x3  
e---------------|---------------
b-----4---7-6-4-|-----4---6-7-8-
g-5-5---5-------|-5-5---5-------
d---------------|---------------
a---------------|---------------
e---------------|---------------
[ Tab from: http://www.guitartabs.cc/tabs/m/misc_comp_games/contra_base_tab.html ]
Then
e-----------------------------
b-----------------------------
g---------------------------1-
d-4-4-3--1-1-3---1-1-3--4-4---
a-----------------------------
e-----------------------------

e-------------------------------
b-----------------------4-4-6-6-
g--------3-3-5------------------
d-4-4-3----------1-1-3----------
a-------------------------------
e-------------------------------

Play the main part again then this

           x4                x4
e------------|-----------------
b-2-----3----|-2-2-----3-3-----
g----3-----3-|-----3-3-----3-3-
d------------|-----------------
a------------|-----------------
e------------|-----------------

That's about it. Repeat until you get to the boss.
Just play the game if you have any trouble with the timing.
Comments