Misc Comp Games - Chrono Trigger Middle Ages Chords & Tabs

 

Chrono Trigger Middle Ages Chords & Tabs

Misc Comp Games Chords & Tabs

Version: 1 Type: Tab 1 rating
1 star 2 stars 3 stars 4 stars 5 stars
comments

Chrono Trigger Middle Ages Tab

Chrono Trigger - Middle Ages Theme (I think :})
This is my first tab. I looked for a tab and couldn't find one, so its all by ear. If you
have any corrections, please email me volcomstone36@hotmail.com .  Thanks and enjoy.


Guitar
                                                                 
E||--17----19----20--19--15------|--17------17--15--------------|
B||--------------------------17--|------------------17--13--15--|
G||------------------------------|------------------------------|
D||------------------------------|------------------------------|
A||------------------------------|------------------------------|
E||------------------------------|------------------------------|

[ Tab from: http://www.guitartabs.cc/tabs/m/misc_comp_games/chrono_trigger_middle_ages_tab.html ]
                                                        
--------------------------17--|--19----20----15--------|
--17----15--------13--17------|------------------------|
--------------14--------------|------------------------|
------------------------------|------------------------|
------------------------------|------------------------|
------------------------------|------------------------|


                                                              
--17----19----20--19--15------|--17------17--15--------------|
--------------------------17--|------------------17--13--15--|
------------------------------|------------------------------|
------------------------------|------------------------------|
------------------------------|------------------------------|
------------------------------|------------------------------|


                                                                  
----------------------15--17--|--19--17--15--17----------|------||
--17----15--------17----------|--------------------------|------||
--------------14--------------|--------------------------|------||
------------------------------|--------------------------|------||
------------------------------|--------------------------|------||
------------------------------|--------------------------|------||


Email any corrections to volcomstone36@hotmail.com
Thanks
Comments