Misc Comp Games - Chrono Cross Theme Chords & Tabs

 

Chrono Cross Theme Chords & Tabs

Misc Comp Games Chords & Tabs

Version: 1 Type: Tab 0 ratings
1 star 2 stars 3 stars 4 stars 5 stars
comments

Chrono Cross Theme Tab

   
Radical Dreamers
----------------
This is the theme song for Chrono Cross, and it sounds awesome. This 
tab consists of 160 measure and there are two parts, this one and the
melody down there. You must play this shit fast, because it was played
in 150bpm. Try it, this whole shit is awesome.

Contact me at p4sc4l_p452l@fastmail.fm for more.

PS: Use an acoustic for the riff.

Tuning : Standart (E A D G B E)
Time Signature: 4/4

 |   |   |   |    |   |   |   |    |   |   |   |    |   |   |   |    
|----------------|----------------|----------------|------2---------|
|----------------|----------0-----|----------0-----|----------3---0-|
|----------------|------2-------2-|------2-------2-|----------------|
|----------------|----0-------0---|----2-------2---|----4-------4---|
|----------------|----------------|0-------0-------|2---------------|
|----------------|3-------3-------|----------------|----------------|

 |   |   |   |    |   |   |   |    |   |   |   |    |   |   |   |    
|------2---------|----------------|----------------|--------0-------|
|--2-------2-----|----------0-----|----------0-----|------0---0-----|
|------------2---|------2-------2-|------2-------2-|----2-------2---|
|--------------4-|----0-------0---|----2-------2---|--2-----------2-|
|0---0---0-------|----------------|0-------0-------|----------------|
|----------------|3-------3-------|----------------|0---------------|

 |   |   |   |    |   |   |   |    |   |   |   |    |   |   |   |    
|----------------|----------------|----------------|------2---------|
|----------------|----------0-----|----------0-----|----------3---0-|
|----------------|------2-------2-|------2-------2-|----------------|
|----------------|----0-------0---|----2-------2---|----4-------4---|
|----------------|----------------|0-------0-------|2---------------|
|0---------------|3-------3-------|----------------|----------------|

 |   |   |   |    |   |   |   |    |   |   |   |    |   |   |   |    
|------2---------|----------------|----------------|----------0-----|
|--2-------2-----|----------0-----|----------0-----|------0-----0---|
|------------2---|------2-------2-|------2-------2-|----------------|
|--------------4-|----0-------0---|----2-------2---|----4---------4-|
|0---0---0-------|----------------|0-------0-------|2---------------|
|----------------|3-------3-------|----------------|----------------|

 |   |   |   |    |   |   |   |    |   |   |   |    |   |   |   |    
|----------------|----------------|----------------|------2---------|
|4---------------|----------0-----|----------0-----|----------3---0-|
|----------------|------2-------2-|------2-------2-|----------------|
|----------------|----0-------0---|----2-------2---|----4-------4---|
|----------------|----------------|0-------0-------|2---------------|
|----------------|3-------3-------|----------------|----------------|

 |   |   |   |    |   |   |   |    |   |   |   |    |   |   |   |    
|------2---------|----------------|----------------|----------------|
|--2-------2-----|----------0-----|----------0-----|----------0-----|
|------------2---|------2-------2-|------2-------2-|------0-------0-|
|--------------4-|----0-------0---|----2-------2---|----2-------2---|
|0---0---0-------|----------------|0-------0-------|----------------|
|----------------|3-------3-------|----------------|0---------------|

 |   |   |   |    |   |   |   |    |   |   |   |    |   |   |   |    
|----------------|----------------|----------------|------2---------|
|--2---0---2-----|----------0-----|----------0-----|----------3---0-|
|--------------3-|------2-------2-|------2-------2-|----------------|
|----2-------4---|----0-------0---|----2-------2---|----4-------4---|
|----------------|----------------|0-------0-------|2---------------|
|2-------2-------|3-------3-------|----------------|----------------|

 |   |   |   |    |   |   |   |    |   |   |   |    |   |   |   |    
|------2---------|----------------|----------------|----------------|
|--2-------2-----|----------0-----|----------0-----|------0---2---0-|
|------------2---|------2-------2-|------2-------2-|----------------|
|--------------4-|----0-------0---|----2-------2---|----2-------2---|
|0---0---0-------|----------------|0-------0-------|----------------|
|----------------|3-------3-------|----------------|2---------------|

 |   |   |   |    |   |   |   |    |   |   |   |    |   |   |   |    
|------2---------|----------------|----------------|------2---------|
|----------2-----|----------0-----|----------0-----|----------3---0-|
|----3-------3---|------2-------2-|------2-------2-|----------------|
|--4-----------4-|----0-------0---|----2-------2---|----4-------4---|
|----------------|----------------|0-------0-------|2---------------|
|2---------------|3-------3-------|----------------|----------------|

 |   |   |   |    |   |   |   |    |   |   |   |    |   |   |   |    
|------2---------|----------------|----------------|----------------|
|--2-------2-----|----------0-----|----------0-----|----------0-----|
|------------2---|------2-------2-|------2-------2-|------0-------0-|
|--------------4-|----0-------0---|----2-------2---|----2-------2---|
|0---0---0-------|----------------|0-------0-------|----------------|
|----------------|3-------3-------|----------------|0---------------|

 |   |   |   |    |   |   |   |    |   |   |   |    |   |   |   |    
|----------------|----------------|----------------|------2---------|
|--2---0---2-----|----------0-----|----------0-----|----------3---0-|
|--------------3-|------2-------2-|------2-------2-|----------------|
|----2-------4---|----0-------0---|----2-------2---|----4-------4---|
|----------------|----------------|0-------0-------|2---------------|
|2-------2-------|3-------3-------|----------------|----------------|

 |   |   |   |    |   |   |   |    |   |   |   |    |   |   |   |    
|------2---------|----------------|----------------|----------------|
|--2-------2-----|----------0-----|----------0-----|------0---2---0-|
|------------2---|------2-------2-|------2-------2-|----------------|
|--------------4-|----0-------0---|----2-------2---|----2-------2---|
|0---0---0-------|----------------|0-------0-------|----------------|
|----------------|3-------3-------|----------------|2---------------|

 |   |   |   |    |   |   |   |    |   |   |   |    |   |   |   |    
|------2---------|----------------|----------------|----------------|
|----------2-----|----------0-----|----------0-----|----------0-----|
|----3-------3---|------2-------2-|------2-------2-|------2-------2-|
|--4-----------4-|----0-------0---|----2-------2---|----2-------2---|
|----------------|----------------|0-------0-------|----------------|
|2---------------|3-------3-------|----------------|2-------2-------|

 |   |   |   |    |   |   |   |    |   |   |   |    |   |   |   |    
|----------------|----------------|----------------|----------0-----|
|--3---0---2-----|----------0-----|----------0-----|------3-------3-|
|--------------2-|------2-------2-|------2-------2-|----2-------2---|
|----4-------4---|----0-------0---|----2-------2---|----------------|
|2-------0-------|----------------|0-------0-------|2---------------|
|----------------|3-------3-------|----------------|----------------|

 |   |   |   |    |   |   |   |    |   |   |   |    |   |   |   |    
|----------0-----|----------------|----------------|----------------|
|------2-----2---|----------0-----|----------0-----|----------0-----|
|----2---------2-|------2-------2-|------2-------2-|------2-------2-|
|----------------|----0-------0---|----2-------2---|----2-------2---|
|0---------------|----------------|0-------0-------|----------------|
|----------------|3-------3-------|----------------|2-------2-------|

 |   |   |   |    |   |   |   |    |   |   |   |    |   |   |   |    
|----------------|----------------|--------------0-|5---------------|
|--3---0---2-----|----------0-----|------------3---|----------------|
|--------------2-|------2-------2-|------2---2-----|----------------|
|----4-------4---|----0-------0---|----2-----------|----------------|
|2-------0-------|----------------|0---------------|----------------|
|----------------|3-------3-------|----------------|----------------|

 |   |   |   |    |   |   |   |    |   |   |   |    |   |   |   |    
|----------------|----------------|----------------|------2---------|
|----------------|----------0-----|----------0-----|----------3---0-|
|----------------|------2-------2-|------2-------2-|----------------|
|----------------|----0-------0---|----2-------2---|----4-------4---|
|----------------|----------------|0-------0-------|2---------------|
|----------------|3-------3-------|----------------|----------------|

 |   |   |   |    |   |   |   |    |   |   |   |    |   |   |   |    
|------2---------|----------------|----------------|--------0-------|
|--2-------2-----|----------0-----|----------0-----|------0---0-----|
|------------2---|------2-------2-|------2-------2-|----2-------2---|
|--------------4-|----0-------0---|----2-------2---|--2-----------2-|
|0---0---0-------|----------------|0-------0-------|----------------|
|----------------|3-------3-------|----------------|0---------------|

 |   |   |   |    |   |   |   |    |   |   |   |    |   |   |   |    
|----------------|----------------|----------------|------2---------|
|----------------|----------0-----|----------0-----|----------3---0-|
|----------------|------2-------2-|------2-------2-|----------------|
|----------------|----0-------0---|----2-------2---|----4-------4---|
|----------------|----------------|0-------0-------|2---------------|
|0-------0---2---|3-------3-------|----------------|----------------|

 |   |   |   |    |   |   |   |    |   |   |   |    |   |   |   |    
|------2---------|----------------|----------------|------0-------0-|
|--2-------2-----|----------0-----|----------0-----|----0-------0---|
|------------2---|------2-------2-|------2-------2-|----------------|
|--------------4-|----0-------0---|----2-------2---|--4-------4-----|
|0---0---0-------|----------------|0-------0-------|2---------------|
|----------------|3-------3-------|----------------|----------------|

 |   |   |   |    |   |   |   |    |   |   |   |    |   |   |   |    
|----------------|----------------|----------------|------2---------|
|----------------|----------0-----|----------0-----|----------3---0-|
|----------------|------2-------2-|------2-------2-|----------------|
|----------------|----0-------0---|----2-------2---|----4-------4---|
|2---------------|----------------|0-------0-------|2---------------|
|----------------|3-------3-------|----------------|----------------|

 |   |   |   |    |   |   |   |    |   |   |   |    |   |   |   |    
|------2---------|----------------|----------------|----------------|
|--2-------2-----|----------0-----|----------0-----|----------0-----|
|------------2---|------2-------2-|------2-------2-|------0-------0-|
|--------------4-|----0-------0---|----2-------2---|----2-------2---|
|0---0---0-------|----------------|0-------0-------|----------------|
|----------------|3-------3-------|----------------|0---------------|

 |   |   |   |    |   |   |   |    |   |   |   |    |   |   |   |    
|----------------|----------------|----------------|------2---------|
|--2---0---2-----|----------0-----|----------0-----|----------3---0-|
|--------------3-|------2-------2-|------2-------2-|----------------|
|----2-------4---|----0-------0---|----2-------2---|----4-------4---|
|----------------|----------------|0-------0-------|2---------------|
|2-------2-------|3-------3-------|----------------|----------------|

 |   |   |   |    |   |   |   |    |   |   |   |    |   |   |   |    
|------2---------|----------------|----------------|----------------|
|--2-------2-----|----------0-----|----------0-----|------0---2---0-|
|------------2---|------2-------2-|------2-------2-|----------------|
|--------------4-|----0-------0---|----2-------2---|----2-------2---|
|0---0---0-------|----------------|0-------0-------|----------------|
|----------------|3-------3-------|----------------|2---------------|

 |   |   |   |    |   |   |   |    |   |   |   |    |   |   |   |    
|------2---------|2---------------|----------------|----------------|
|----------2-----|----------0-----|----------0-----|----------0-----|
|----3-------3---|------2-------2-|------2-------2-|------2-------2-|
|--4-----------4-|----0-------0---|----2-------2---|----2-------2---|
|----------------|----------------|0-------0-------|----------------|
|2---------------|3-------3-------|----------------|2-------2-------|

 |   |   |   |    |   |   |   |    |   |   |   |    |   |   |   |    
|----------------|----------------|----------------|--------0-------|
|--3---0---2-----|----------0-----|----------0-----|----3-------3---|
|--------------2-|------2-------2-|------2-------2-|--2---2-------2-|
|----4-------4---|----0-------0---|----2-------2---|----------------|
|2-------0-------|----------------|0-------0-------|----------------|
|----------------|3-------3-------|----------------|----------------|

 |   |   |   |    |   |   |   |    |   |   |   |    |   |   |   |    
|--------0-------|----------------|----------------|----------------|
|----2-------2---|----------0-----|----------0-----|----------0-----|
|--2---2-------2-|------2-------2-|------2-------2-|------2-------2-|
|----------------|----0-------0---|----2-------2---|----2-------2---|
|----------------|----------------|0-------0-------|----------------|
|----------------|3-------3-------|----------------|2-------2-------|

 |   |   |   |    |   |   |   |    |   |   |   |    |   |   |   |    
|----------------|----------------|----------------|--------0-------|
|--3---0---2-----|----------0-----|----------0-----|------0---0-----|
|--------------2-|------2-------2-|------2-------2-|----2-------2---|
|----4-------4---|----0-------0---|----2-------2---|--2-----------2-|
|2-------0-------|----------------|0-------0-------|----------------|
|----------------|3-------3-------|----------------|0---------------|

 |   |   |   |    |   |   |   |    |   |   |   |    |   |   |   |    
|----------------|------2---------|------2---------|------2---------|
|----------------|----0-----3-0---|----------3-----|----3-----3-----|
|----------------|----------------|----0---------0-|--2---------2---|
|----------------|--4-----------4-|--4---------4---|0-------0-----0-|
|----------------|2-------2-------|----------------|----------------|
|0---------------|----------------|3-------3-------|----------------|

 |   |   |   |    |   |   |   |    |   |   |   |    |   |   |   |    
|----------------|------2---------|------2---------|----------0-----|
|------3---2-----|----0-----3-0---|----------3-----|----3-0-------3-|
|----2-------2---|----------------|----0-------0---|--2---------2---|
|--2-----------2-|--4-----------4-|--4-----------4-|----------------|
|0-------0-------|2-------2-------|----------------|0-------0-------|
|----------------|----------------|3-------3-------|----------------|

 |   |   |   |    |   |   |   |    |   |   |   |    |   |   |   |    
|----------0-----|------2---------|------2---------|------2---------|
|--0-2-------2---|----0-----3-0---|----------3-----|----3-----3-----|
|------2-------2-|----------------|----0---------0-|--2---------2---|
|----------------|--4-----------4-|--4---------4---|0-------0-----0-|
|0-------0-------|2-------2-------|----------------|----------------|
|----------------|----------------|3-------3-------|----------------|

 |   |   |   |    |   |   |   |    |   |   |   |    |   |   |   |    
|----------------|------2---------|------2---------|----------0-----|
|------3---2-----|----0-----3-0---|----------3-----|----3-0-------3-|
|----2-------2---|----------------|----0-------0---|--2---------2---|
|--2-----------2-|--4-----------4-|--4-----------4-|----------------|
|0-------0-------|2-------2-------|----------------|0-------0-------|
|----------------|----------------|3-------3-------|----------------|

 |   |   |   |    |   |   |   |    |   |   |   |    |   |   |   |    
|----------0-----|------2---------|------2---------|------2---------|
|--0-2-------2---|----0-----3-0---|----------3-----|----3-----3-----|
|------2-------2-|----------------|----0---------0-|--2---------2---|
|----------------|--4-----------4-|--4---------4---|0-------0-----0-|
|0-------0-------|2-------2-------|----------------|----------------|
|----------------|----------------|3-------3-------|----------------|

 |   |   |   |    |   |   |   |    |   |   |   |    |   |   |   |    
|----------------|------2---------|------2---------|----------0-----|
|------3---2-----|----0-----3-0---|----------3-----|----3-0-------3-|
|----2-------2---|----------------|----0-------0---|--2---------2---|
|--2-----------2-|--4-----------4-|--4-----------4-|----------------|
|0-------0-------|2-------2-------|----------------|0-------0-------|
|----------------|----------------|3-------3-------|----------------|

 |   |   |   |    |   |   |   |    |   |   |   |    |   |   |   |    
|----------0-----|------2---------|------2---------|------2---------|
|--0-2-------2---|----0-----3-0---|----------3-----|----3-----3-----|
|------2-------2-|----------------|----0---------0-|--2---------2---|
|----------------|--4-----------4-|--4---------4---|0-------0-----0-|
|0-------0-------|2-------2-------|----------------|----------------|
|----------------|----------------|3-------3-------|----------------|

 |   |   |   |    |   |   |   |    |   |   |   |    |   |   |   |    
|----------------|------2---------|------2---------|----------0-----|
|------3---2-----|----0-----3-0---|----------3-----|----3-0-------3-|
|----2-------2---|----------------|----0-------0---|--2---------2---|
|--2-----------2-|--4-----------4-|--4-----------4-|----------------|
|0-------0-------|2-------2-------|----------------|0-------0-------|
|----------------|----------------|3-------3-------|----------------|

 |   |   |   |    |   |   |   |    |   |   |   |    |   |   |   |    
|----------0-----|----------------|----------------|------2---------|
|--0-2-------2---|----------0-----|----------0-----|----------3---0-|
|------2-------2-|------2-------2-|------2-------2-|----------------|
|----------------|----0-------0---|----2-------2---|----4-------4---|
|0-------0-------|----------------|0-------0-------|2---------------|
|----------------|3-------3-------|----------------|----------------|

 |   |   |   |    |   |   |   |    |   |   |   |    |   |   |   |    
|------2---------|----------------|----------------|----------2-----|
|--2-------2-----|----------0-----|----------0-----|------3-------0-|
|------------2---|------2-------2-|------2-------2-|----------------|
|--------------4-|----0-------0---|----2-------2---|----4-----------|
|0---0---0-------|----------------|0-------0-------|2---------------|
|----------------|3-------3-------|----------------|----------------|

 |   |   |   |    |   |   |   |    |   |   |   |    |   |   |   |    
|----------------|----------------|----------------|------2---------|
|--2---0---2---0-|----------0-----|----------0-----|----------3---0-|
|----------------|------2-------2-|------2-------2-|----------------|
|----------------|----0-------0---|----2-------2---|----4-------4---|
|----------------|----------------|0-------0-------|2---------------|
|----------------|3-------3-------|----------------|----------------|
[ Tab from: http://www.guitartabs.cc/tabs/m/misc_comp_games/chrono_cross_theme_tab.html ]
 |   |   |   |    |   |   |   |    |   |   |   |    |   |   |   |    
|------2---------|----------------|--------0-------|----------------|
|--2-------2-----|----------0-----|------0---0-----|----------------|
|------------2---|------2-------2-|----2-------2---|----------------|
|--------------4-|----0-------0---|--2-----------2-|----------------|
|0---0---0-------|----------------|0---------------|2---------------|
|----------------|3-------3-------|----------------|----------------|

Ok, there goes the riff and below are the melody. Beware that there are
very high notes here so use a clean eletric guitar to play it. The reasons
why I kept all of those empty boxes is I wanted to fit it with the riff.

 |   |   |   |    |   |   |   |    |   |   |   |    |   |   |   |    
|----------------|----------------|----------------|----------------|
|----------------|----------------|----------------|----------------|
|----------------|----------------|----------------|----------------|
|----------------|----------------|----------------|----------------|
|----------------|----------------|----------------|----------------|
|----------------|----------------|----------------|----------------|

 |   |   |   |    |   |   |   |    |   |   |   |    |   |   |   |    
|----------------|----------------|----------------|----------------|
|----------------|----------------|----------------|----------------|
|----------------|----------------|----------------|----------------|
|----------------|----------------|----------------|----------------|
|----------------|----------------|----------------|----------------|
|----------------|----------------|----------------|----------------|

 |   |   |   |    |   |   |   |    |   |   |   |    |   |   |   |    
|----------------|----------------|----------------|----------------|
|----------------|----------------|----------------|----------------|
|----------------|----------------|----------------|----------------|
|----------------|----------------|----------------|----------------|
|----------------|----------------|----------------|----------------|
|----------------|----------------|----------------|----------------|

 |   |   |   |    |   |   |   |    |   |   |   |    |   |   |   |    
|----------------|----------------|----------------|----------------|
|----------------|----------------|----------------|----------------|
|----------------|----------------|----------------|----------------|
|----------------|----------------|----------------|----------------|
|----------------|----------------|----------------|----------------|
|----------------|----------------|----------------|----------------|

 |   |   |   |    |   |   |   |    |   |   |   |    |   |   |   |    
|----------------|--------1415--17|----------------|------14--------|
|----------------|----------------|--17--15--14----|14--12----------|
|----------------|------14--------|----------------|----------------|
|----------------|----------------|----------------|----------------|
|----------------|----------------|----------------|----------------|
|----------------|----------------|----------------|----------------|

 |   |   |   |    |   |   |   |    |   |   |   |    |   |   |   |    
|----------------|--------1415--17|----------------|12----------14--|
|----------------|----------------|--17--15--14----|------12--------|
|----------------|------14--------|----------------|----------------|
|----------------|----------------|----------------|----------------|
|----------------|----------------|----------------|----------------|
|----------------|----------------|----------------|----------------|

 |   |   |   |    |   |   |   |    |   |   |   |    |   |   |   |    
|------1512------|--------1415--17|----------------|------14--------|
|----------------|----------------|--17--15--14----|14--12----------|
|----------------|------14--------|----------------|----------------|
|----------------|----------------|----------------|----------------|
|----------------|----------------|----------------|----------------|
|----------------|----------------|----------------|----------------|

 |   |   |   |    |   |   |   |    |   |   |   |    |   |   |   |    
|----------1214--|----------121412|--------12--109-|----------------|
|--------15----15|--------15------|----------------|----------------|
|----------------|----------------|----------------|----------------|
|----------------|----------------|----------------|----------------|
|----------------|----------------|----------------|----------------|
|----------------|----------------|----------------|----------------|

 |   |   |   |    |   |   |   |    |   |   |   |    |   |   |   |    
|----------------|--------1415--17|----------------|------14--------|
|----------------|----------------|--17--15--14----|14--12----------|
|----------------|------14--------|----------------|----------------|
|----------------|----------------|----------------|----------------|
|----------------|----------------|----------------|----------------|
|----------------|----------------|----------------|----------------|

 |   |   |   |    |   |   |   |    |   |   |   |    |   |   |   |    
|----------------|--------1415--17|--19------------|12----------14--|
|----------------|----------------|------19--17----|------12--------|
|----------------|------14--------|----------------|----------------|
|----------------|----------------|----------------|----------------|
|----------------|----------------|----------------|----------------|
|----------------|----------------|----------------|----------------|

 |   |   |   |    |   |   |   |    |   |   |   |    |   |   |   |    
|------1512------|--------1415--17|----------------|------14--------|
|----------------|----------------|--17--15--14----|14--12----------|
|----------------|------14--------|----------------|----------------|
|----------------|----------------|----------------|----------------|
|----------------|----------------|----------------|----------------|
|----------------|----------------|----------------|----------------|

 |   |   |   |    |   |   |   |    |   |   |   |    |   |   |   |    
|----------1214--|----------121412|--------12--109-|----------------|
|--------15----15|--------15------|----------------|----------------|
|----------------|----------------|----------------|----------------|
|----------------|----------------|----------------|----------------|
|----------------|----------------|----------------|----------------|
|----------------|----------------|----------------|----------------|

 |   |   |   |    |   |   |   |    |   |   |   |    |   |   |   |    
|----------------|------14--------|------17--------|14--------------|
|----------------|12--------------|17--------------|------14----14--|
|----------------|----------------|----------------|----------------|
|----------------|----------------|----------------|----------------|
|----------------|----------------|----------------|----------------|
|----------------|----------------|----------------|----------------|

 |   |   |   |    |   |   |   |    |   |   |   |    |   |   |   |    
|10--9---10------|------14--------|------17--------|------21----19--|
|----------------|12--------------|17--------------|19--------------|
|----------------|----------------|----------------|----------------|
|----------------|----------------|----------------|----------------|
|----------------|----------------|----------------|----------------|
|----------------|----------------|----------------|----------------|

 |   |   |   |    |   |   |   |    |   |   |   |    |   |   |   |    
|----------------|------14--------|------17--------|14--------------|
|----------------|12--------------|17--------------|------14----14--|
|----------------|----------------|----------------|----------------|
|----------------|----------------|----------------|----------------|
|----------------|----------------|----------------|----------------|
|----------------|----------------|----------------|----------------|

 |   |   |   |    |   |   |   |    |   |   |   |    |   |   |   |    
|10--9---10--7-9-|------------1412|----------------|----------------|
|----------------|15----15--------|----------------|----------------|
|----------------|----------------|----------------|----------------|
|----------------|----------------|----------------|----------------|
|----------------|----------------|----------------|----------------|
|----------------|----------------|----------------|----------------|

 |   |   |   |    |   |   |   |    |   |   |   |    |   |   |   |    
|--------10--9-10|----------------|----------------|----------------|
|----------------|----------------|----------------|----------------|
|----------------|----------------|----------------|----------------|
|----------------|----------------|----------------|----------------|
|----------------|----------------|----------------|----------------|
|----------------|----------------|----------------|----------------|

 |   |   |   |    |   |   |   |    |   |   |   |    |   |   |   |    
|----------------|----------------|----------------|----------------|
|----------------|----------------|----------------|----------------|
|----------------|----------------|----------------|----------------|
|----------------|----------------|----------------|----------------|
|----------------|----------------|----------------|----------------|
|----------------|----------------|----------------|----------------|

 |   |   |   |    |   |   |   |    |   |   |   |    |   |   |   |    
|----------------|----------------|----------------|----------------|
|----------------|----------------|----------------|----------------|
|----------------|----------------|----------------|----------------|
|----------------|----------------|----------------|----------------|
|----------------|----------------|----------------|----------------|
|----------------|----------------|----------------|----------------|

 |   |   |   |    |   |   |   |    |   |   |   |    |   |   |   |    
|----------------|----------------|----------------|----------------|
|----------------|----------------|----------------|----------------|
|----------------|----------------|----------------|----------------|
|----------------|----------------|----------------|----------------|
|----------------|----------------|----------------|----------------|
|----------------|----------------|----------------|----------------|

 |   |   |   |    |   |   |   |    |   |   |   |    |   |   |   |    
|----------------|--------1415--17|----------------|------14--------|
|----------------|----------------|--17--15--14----|14--12----------|
|----------------|------14--------|----------------|----------------|
|----------------|----------------|----------------|----------------|
|----------------|----------------|----------------|----------------|
|----------------|----------------|----------------|----------------|

 |   |   |   |    |   |   |   |    |   |   |   |    |   |   |   |    
|----------------|--------1415--17|----------------|12----------14--|
|----------------|----------------|--17--15--14----|------12--------|
|----------------|------14--------|----------------|----------------|
|----------------|----------------|----------------|----------------|
|----------------|----------------|----------------|----------------|
|----------------|----------------|----------------|----------------|

 |   |   |   |    |   |   |   |    |   |   |   |    |   |   |   |    
|------1512------|--------1415--17|----------------|------14--------|
|----------------|----------------|--17--15--14----|14--12----------|
|----------------|------14--------|----------------|----------------|
|----------------|----------------|----------------|----------------|
|----------------|----------------|----------------|----------------|
|----------------|----------------|----------------|----------------|

 |   |   |   |    |   |   |   |    |   |   |   |    |   |   |   |    
|----------1214--|----------121412|--------12--109-|----------------|
|--------15----15|--------15------|----------------|----------------|
|----------------|----------------|----------------|----------------|
|----------------|----------------|----------------|----------------|
|----------------|----------------|----------------|----------------|
|----------------|----------------|----------------|----------------|

 |   |   |   |    |   |   |   |    |   |   |   |    |   |   |   |    
|----------------|------14--------|------17--------|14--------------|
|----------------|12--------------|17--------------|------14----14--|
|----------------|----------------|----------------|----------------|
|----------------|----------------|----------------|----------------|
|----------------|----------------|----------------|----------------|
|----------------|----------------|----------------|----------------|

 |   |   |   |    |   |   |   |    |   |   |   |    |   |   |   |    
|10--9---10------|------14--------|------17--------|------21----19--|
|----------------|12--------------|17--------------|19--------------|
|----------------|----------------|----------------|----------------|
|----------------|----------------|----------------|----------------|
|----------------|----------------|----------------|----------------|
|----------------|----------------|----------------|----------------|

 |   |   |   |    |   |   |   |    |   |   |   |    |   |   |   |    
|----------------|------14--------|------17--------|14--------------|
|----------------|12--------------|17--------------|------14----14--|
|----------------|----------------|----------------|----------------|
|----------------|----------------|----------------|----------------|
|----------------|----------------|----------------|----------------|
|----------------|----------------|----------------|----------------|

 |   |   |   |    |   |   |   |    |   |   |   |    |   |   |   |    
|10--9---10------|------14--------|12----10----9---|7---------------|
|----------------|12--------------|----------------|----------------|
|----------------|----------------|----------------|----------------|
|----------------|----------------|----------------|----------------|
|----------------|----------------|----------------|----------------|
|----------------|----------------|----------------|----------------|

 |   |   |   |    |   |   |   |    |   |   |   |    |   |   |   |    
|----------------|----------------|----------------|----------------|
|----------------|----------------|----------------|----------------|
|----------------|----------------|----------------|----------------|
|----------------|----------------|----------------|----------------|
|----------------|----------------|----------------|----------------|
|----------------|----------------|----------------|----------------|

 |   |   |   |    |   |   |   |    |   |   |   |    |   |   |   |    
|----------------|----------------|----------------|----------------|
|----------------|----------------|----------------|----------------|
|----------------|----------------|----------------|----------------|
|----------------|----------------|----------------|----------------|
|----------------|----------------|----------------|----------------|
|----------------|----------------|----------------|----------------|

 |   |   |   |    |   |   |   |    |   |   |   |    |   |   |   |    
|----------------|10--------------|--------12------|14--------------|
|----------------|----------------|----------------|----------------|
|----------------|----------------|----------------|----------------|
|----------------|----------------|----------------|----------------|
|----------------|----------------|----------------|----------------|
|----------------|----------------|----------------|----------------|

 |   |   |   |    |   |   |   |    |   |   |   |    |   |   |   |    
|12------9-------|10--------------|15--------------|12--------------|
|----------------|----------------|----------------|----------------|
|----------------|----------------|----------------|----------------|
|----------------|----------------|----------------|----------------|
|----------------|----------------|----------------|----------------|
|----------------|----------------|----------------|----------------|

 |   |   |   |    |   |   |   |    |   |   |   |    |   |   |   |    
|9---------------|10--------------|--------12------|14--------------|
|----------------|----------------|----------------|----------------|
|----------------|----------------|----------------|----------------|
|----------------|----------------|----------------|----------------|
|----------------|----------------|----------------|----------------|
|----------------|----------------|----------------|----------------|

 |   |   |   |    |   |   |   |    |   |   |   |    |   |   |   |    
|12------9-------|17--------------|----------------|----------------|
|----------------|----------------|----------------|----------------|
|----------------|----------------|----------------|----------------|
|----------------|----------------|----------------|----------------|
|----------------|----------------|----------------|----------------|
|----------------|----------------|----------------|----------------|

 |   |   |   |    |   |   |   |    |   |   |   |    |   |   |   |    
|----------------|14--------------|7---------------|5---------------|
|----------------|----------------|----------------|----------------|
|----------------|----------------|----------------|----------------|
|----------------|----------------|----------------|----------------|
|----------------|----------------|----------------|----------------|
|----------------|----------------|----------------|----------------|

 |   |   |   |    |   |   |   |    |   |   |   |    |   |   |   |    
|12--------------|17--------------|--------15------|12--------------|
|----------------|----------------|----------------|----------------|
|----------------|----------------|----------------|----------------|
|----------------|----------------|----------------|----------------|
|----------------|----------------|----------------|----------------|
|----------------|----------------|----------------|----------------|

 |   |   |   |    |   |   |   |    |   |   |   |    |   |   |   |    
|9---------------|10--------------|----------------|----------------|
|----------------|----------------|----------------|----------------|
|----------------|----------------|----------------|----------------|
|----------------|----------------|----------------|----------------|
|----------------|----------------|----------------|----------------|
|----------------|----------------|----------------|----------------|

 |   |   |   |    |   |   |   |    |   |   |   |    |   |   |   |    
|----------------|----------------|----------------|----------------|
|----------------|----------------|----------------|----------------|
|----------------|----------------|----------------|----------------|
|----------------|----------------|----------------|----------------|
|----------------|----------------|----------------|----------------|
|----------------|----------------|----------------|----------------|

 |   |   |   |    |   |   |   |    |   |   |   |    |   |   |   |    
|----------------|----------------|----------------|----------------|
|----------------|----------------|----------------|----------------|
|----------------|----------------|----------------|----------------|
|----------------|----------------|----------------|----------------|
|----------------|----------------|----------------|----------------|
|----------------|----------------|----------------|----------------|

 |   |   |   |    |   |   |   |    |   |   |   |    |   |   |   |    
|----------------|----------------|----------------|----------------|
|----------------|----------------|----------------|----------------|
|----------------|----------------|----------------|----------------|
|----------------|----------------|----------------|----------------|
|----------------|----------------|----------------|----------------|
|----------------|----------------|----------------|----------------|

created by TablEdit:
www.tabledit.com
Comments