Misc Comp Games - Chocobob Theme Chords & Tabs

 

Chocobob Theme Chords & Tabs

Misc Comp Games Chords & Tabs

Version: 1 Type: Tab 0 ratings
1 star 2 stars 3 stars 4 stars 5 stars
comments

Chocobob Theme Tab

CHOCOBO THEME (FINAL FANTASY)



               *Play this part very very quick *
|----------|-------------------------------------|---------------------------|
|----------|-------------------------------------|---------------------------|
|----------|-------------------------------------|---------------------------|
|----------|-------------------------------------|---------------------------|
|----------|-4-3-3-2-2-1-1-0-0---------------|---2-----2------2-----2---|
|----------|-------------------4-4-3-2-1-1-0--|--0-----3-----------3-----|



|-------------------------------|-----------------------------|
|-------------------------------|-----------------------------|
|-------------------------------|-----------------------------|
|-------------------------------|-----------------------------|
|-----2-------2-----2-------2-|-----2-------2-----2-----2---|
|-0-------3-------------3-----|-0-------3-----------3-------|



|-----------------------------|----------------------------------|
|-----------------------------|----------------------------------|
|-----------------------------|----------------------------------|
|-----------------------------|----------------------------------|
|-----2-------2-----2-----2---|-----5-------5-------5-------5----|
|-0-------3-----------3-------|-3-------6-------3-------6--------|


|---------------------------------|---------------------------------|
|---------------------------------|---------------------------------|
|---------------------------------|---------------------------------|
|---------------------------------|---------------------------------|
|-----5-------5-------5-------5---|-----5-------5-------5-------5---|
|-3-------6-------3-------6-------|-3-------6-------3-------6-------|



|---------------------------------|---------------------------------|
|---------------------------------|---------------------------------|
|---------------------------------|---------------------------------|
|---------------------------------|---------------------------------|
|-----5-------5-------5-------5---|-----5-------5-------3---0---3---|
|-3-------6-------3-------6-------|-3-------7-------1---------------|



|---------------------------------|---------------------------------|
|---------------------------------|---------------------------------|
|---------------------------------|---------------------------------|
|---------------------------------|---------------------------------|
|-----5-------5-------3---0---3---|-----5-------5-------3---0---3---|
|-3-------7-------1---------------|-3-------7-------1---------------|


|---------------------------------|---------------------------------|
|---------------------------------|---------------------------------|
|---------------------------------|---------------------------------|
|---------------------------------|---------------------------------|
|-----5-------5-------3---0---3---|-----5-------5-------3---0---3---|
|-3-------7-------1---------------|-3-------7-------1---------------|


|---------------------------------|---------------------------------|
|---------------------------------|---------------------------------|
|---------------------------------|---------------------------------|
|---------------------------------|---------------------------------|
|-----5-------5-------3---0---3---|-----5-------5-------3---0---3---|
|-3-------7-------1---------------|-3-------7-------1---------------|


|---------------------------------|---------------------------------|
|---------------------------------|---------------------------------|
|---------------------------------|-------------0-------------------|
|---------------------------------|---------2-------0---0-------0---|
|-----5-------5-------3---0---3---|-3---3-------------------0-------|
|-3-------7-------1---------------|---------------------------------|



|---------------------------------|---------------------------------|
|---------------------------------|---------------------------------|
|---------------------------------|-------------0-------------------|
|---------------------------------|---------2-------0---0-------0---|
|---------2---------------2-------|-3---3-------------------0-------|
|-3---3-------3---2---2-------2---|---------------------------------|


[ Tab from: http://www.guitartabs.cc/tabs/m/misc_comp_games/chocobob_theme_tab.html ]
|---------------------------------|---------------------------------|
|---------------------------------|---------------------------------|
|---------------------------------|-------------0-------------------|
|---------------------------------|---------2-------0---0-------0---|
|---------0---0---1---1---2---2---|-3---3-------------------0-------|
|-3---3---------------------------|---------------------------------|



|---------------------------------|---------------------------------|
|---------------------------------|---------------------------------|
|---------------------------------|---------------------------------|
|---------------------------------|---------------------------------|
|---------2---------------2-------|-0---0---2---0---3---0---2---0---|
|-3---3-------3---2---2-------2---|---------------------------------|


|---------------------------|---------------------------------|
|---------------------------|---------------------------------|
|---------------------------|---------------------------------|
|-0---0---------------------|---------------------------------|
|---------3---2---0---------|-----5-------5-------3---0---3---|
|-----------------------2---|-3-------7-------1---------------|



|---------------------------------|---------------------------------|
|---------------------------------|---------------------------------|
|---------------------------------|---------------------------------|
|---------------------------------|---------------------------------|
|-----5-------5-------3---0---3---|-----5-------5-------3---0---3---|
|-3-------7-------1---------------|-3-------7-------1---------------|


|---------------------------------|---------------------------------|
|---------------------------------|---------------------------------|
|---------------------------------|---------------------------------|
|---------------------------------|---------------------------------|
|-----5-------5-------3---0---3---|-----5-------5-------3---0---3---|
|-3-------7-------1---------------|-3-------7-------1---------------|


|---------------------------------|---------------------------------|
|---------------------------------|---------------------------------|
|---------------------------------|---------------------------------|
|---------------------------------|---------------------------------|
|-----5-------5-------3---0---3---|-----5-------5-------3---0---3---|
|-3-------7-------1---------------|-3-------7-------1---------------|


|---------------------------------|---------------------------------|
|---------------------------------|---------------------------------|
|---------------------------------|-------------0-------------------|
|---------------------------------|---------2-------0---0-------0---|
|-----5-------5-------3---0---3---|-3---3-------------------0-------|
|-3-------7-------1---------------|---------------------------------|


|---------------------------------|---------------------------------|
|---------------------------------|---------------------------------|
|---------------------------------|-------------0-------------------|
|---------------------------------|---------2-------0---0-------0---|
|---------2---------------2-------|-3---3-------------------0-------|
|-3---3-------3---2---2-------2---|---------------------------------|


|---------------------------------|---------------------------------|
|---------------------------------|---------------------------------|
|---------------------------------|-------------0-------------------|
|---------------------------------|---------2-------0---0-------0---|
|---------0---0---1---1---2---2---|-3---3-------------------0-------|
|-3---3---------------------------|---------------------------------|



|---------------------------------|---------------------------------|
|---------------------------------|---------------------------------|
|---------------------------------|---------------------------------|
|---------------------------------|---------------------------------|
|---------2---------------2-------|-0---0---2---0---3---0---2---0---|
|-3---3-------3---2---2-------2---|---------------------------------|



|---------------------------|--------------
|---------------------------|--------------
|---------------------------|--------------
|-0---0---------------------|-------------
|---------3---2---0---------|-------------
|-----------------------2---|-3-----------


Dark_Magician 2002 (nicks_mem@yahoo.co.uk)	



Comments