Misc Classical - The Halls Of King Mountain Chords & Tabs

 

The Halls Of King Mountain Chords & Tabs

Misc Classical Chords & Tabs

Version: 1 Type: Tab 2 ratings
1 star 2 stars 3 stars 4 stars 5 stars
comments

The Halls Of King Mountain Tab

  I'M SURE THAT THIS TAB IS 100% CORRECT. IF YOU HAVE ANY QUESTIONS, EMAIL ME AT TREE012345678@AOL.COM




     PART 1: PLAY TWICE

  E  ----------------------------------------------------------------------------------------------					         
  B  ----------------------------------------------------------------------------------------------
  G  ------------------------------------------------------------------------4—2-------------2-----
  D  -------2---------4----4-----3----3------2----2--------2------4-----4------------4---4---------
  A  —2—4—5--------------5----------4----------3----—2—4—5-----------5-----------------5-----------
  E  ----------------------------------------------------------------------------------------------

     PART 2: PLAY TWICE

  E  ----------------------------------------------------------------------------------------------
  B ---------------2----2-----3----3-----2----2-------------------------2----2-----3----3-----2----
  G ------1—3—4-------3----------3----------3-----------------1—3—4-------3-----------3-------3----
  D —4------------------------------------------------------4--------------------------------------
  A -----------------------------------------------------------------------------------------------
  E -----------------------------------------------------------------------------------------------

     PART 3:PLAY TWICE

[ Tab from: http://www.guitartabs.cc/tabs/m/misc_classical/the_halls_of_king_mountain_tab.html ]
  E -----------------------------------------------------------------------------------------------
  B -----------------------------------------------------------------------------------------------
  G -----------------------------------------------------------------------------------------------
  D -----------------------------------------------------------------------------------------------
  A -----------1---2-----4—1—4----5—5----4—4-------------------1—2----4—1—4-----5---5----4---------
  E  ---2—4------------------------6------6--------------—2—4---------------------6----------------

     PART 4: PLAY ONCE
                                                                                                
                                                                                                 
  E ---------------------------------------------------------------------------------------------2--
  B ----------------------------------------------------------------------------------2--0-------3--
  G ---------------------------------------------------------------------------4—3—-3------------4--
  D --------2-------4---4-------3—3--------2----2------------------2------4--4----4--------------4--
  A —2—4—5------------5----------4-----------3—------------—2—4—5-----------5--------------------2--
  E ---------------------------------------------------------------------------------------------2--
Comments