Misc Classical - Ode To Joy Chords & Tabs

 

Ode To Joy Chords & Tabs

Misc Classical Chords & Tabs

Version: 1 Type: Tab 5 ratings
1 star 2 stars 3 stars 4 stars 5 stars
comments

Ode To Joy Tab

e-------------------------------|
b-------------------------------|
g-------------------------------|
d-2-2-3-5-5-3-2-0-----0-2-2-0-0-|
a-----------------3-3-----------|
e-------------------------------|
[ Tab from: http://www.guitartabs.cc/tabs/m/misc_classical/ode_to_joy_tab.html ]
e-------------------------------|
b-------------------------------|
g-------------------------------|
d-2-2-3-5-5-3-2-0-----0-2-2-0-0-|
a-----------------3-3-----------|
e-------------------------------|
[ Tab from: http://www.guitartabs.cc/tabs/m/misc_classical/ode_to_joy_tab.html ]
e-------------------------------|
b-------------------------------|
g-------------------------------|
d-0-0-2---0-3-2---0-3-2-0---0-5-|
a-------3-------3---------3-----|
e-------------------------------|

e-------------------------------|
b-------------------------------|
g-------------------------------|
d-2-2-3-5-5-3-2-0-----0-2-2-0-0-|
a-----------------3-3-----------|
e-------------------------------|
[ Tab from: http://www.guitartabs.cc/tabs/m/misc_classical/ode_to_joy_tab.html ]
Comments