Misc Classical - Classical Song Chords & Tabs

 

Classical Song Chords & Tabs

Misc Classical Chords & Tabs

Version: 1 Type: Tab 1 rating
1 star 2 stars 3 stars 4 stars 5 stars
comments

Classical Song Tab

     I saw one of the songs I put on this website at number 12
    and got really excited. this song is not at all like the other
   other one but it is real cool alot of people like it.


   E  -------0------------0------------0-----------0-----------
   B  -----1-----1------1-----1------0-----0-----0-------0---------
   G  ---2-----2------2-----2------1-----1-----1------1-------------
   D  --------------------------------------------------------------
   A  -0------------0------------------------------------------------
   E  ---------------------------0-----------0---------------------

[ Tab from: http://www.guitartabs.cc/tabs/m/misc_classical/classical_song_tab.html ]
   E  -------0------------0-------------0------------0------------
   B  -----3-----3------3-----3-------1-----1------1-----1---------
   G  ---1-----1------1-----1-------2-----2------2-----2-------
   D  ----------------------------------------------------------
   A  ----------------------------0------------0------------
   E  -0-----------0-------------------------------------------


   E  -------0-------------0------------1-------------1---------
   B  -----2------2------2-----2------3------3------3------3-----
   G  ---0------0------0-----0------2------2------2------2------
   D  ----------------------------0-------------0---------------
   A  -0-------------0------------------------------------------
   E  ------------------------------------------------------------


        

   
   E  -------0------------0------------0---------------------
   B  -----1-----1------0-----0------1-----1------------------
   G  ---2-----2------1-----1------2-----2--------------------
   D  -------------------------------------------------------
   A  ---------------------------0-------------0-------------
   E  -0------------0-----------------------------------------



          MAY 17, 2002   Danielle
      
Comments