Misc Classical - Classical Piece Chords & Tabs

 

Classical Piece Chords & Tabs

Misc Classical Chords & Tabs

Version: 1 Type: Tab 0 ratings
1 star 2 stars 3 stars 4 stars 5 stars
comments

Classical Piece Tab

This is a mixture of exercises put together by yours truly, I hope it
is alright. It is fairly tough to play, but it should be played at 
about 8 to 10 notes per second. Just practice it for awhile and you'll 
get the hang of it. I'll post more stuff later on. Peace. 

Canada Kicks Ass.

Exercise 1: Move this up and down the fretboard going by twos and it 
will sound awesome. 

E-----------------8-12-8--------------------
B--------------10--------10-----------------
G------------9--------------9---------------
D-------7-10------------------10-7----------
A-----7----------------------------7--------
E-5-8--------------------------------8------
[ Tab from: http://www.guitartabs.cc/tabs/m/misc_classical/classical_piece_tab.html ]
Exercise 2: This is a remake of a piece by Paganini and it's also 
from the movie "Crossroads". Repeat the first line then play the 
second line once and then move that pattern back down two frets and 
play again.

E----------------------------17-15-13----------------
B----13-17-13----15-17-15-13----------17-15-13-------
G-14----------16-------------------------------16----
D----------------------------------------------------
A----------------------------------------------------
E----------------------------------------------------

E----------------17-15-------19-17-15----------------
B----15-19-15----------19-17----------19-17-15-------
G-16----------18-------------------------------18----
D----------------------------------------------------
A----------------------------------------------------
E----------------------------------------------------

 
Comments