Misc Classical - Bouree In E Minor Chords & Tabs

 

Bouree In E Minor Chords & Tabs

Misc Classical Chords & Tabs

Version: 1 Type: Tab 2 ratings
1 star 2 stars 3 stars 4 stars 5 stars
comments

Bouree In E Minor Tab

This is a moderately played classical song. A Bourrée is a dance that people use to do hundreds of 
years ago. This song is a great way to get the fingers on both of your hands to work much more in 
unison. It’s a fun song to play, and sounds great once you get the hand of it.

This should be correct, but if you feel any corrections need to be made, please e-mail me at: 
gunman_groove@hotmail.com

Title: Bourrée in E minor
Tabbed by: MakoMako 
Tuning: Standard

e:||-0--2----3----2----0-------0----2-------------------0-----------||
B:||----------------------4--------------0----2----4---------3----1-||
G:||----------------------------------------------------------------||
D:||----------------------------------------------------------------||
A:||--------------0-------2----0------------------------------------||
E:||-3--2----0---------------------------3----2---------0----2------||
[ Tab from: http://www.guitartabs.cc/tabs/m/misc_classical/bouree_in_e_minor_tab.html ]
e:||----------------------------------------0--2---3--2---0-----0--2||
B:||-0-----------------------0-------------------------------4------||
G:||----2---0--------0---2-------2---0------------------------------||
D:||------------4---------------------------------------------------||
A:||----0-------2----0---------------2----------------0------2--0---||
E:||-3-----------------------3-----------2--3--2---0----------------||

e:||-------------0--------------------------------------------------||
B:||-0---2---4-------3---1---0--------------------------------------||
G:||-----------------------------2---0-----------0---0--------------||
D:||-------------------------------------4-----------0--------------||
A:||-----------------------------3-------5---5-------2--------------||
E:||-3---2-------0---2-------3-----------------------3--------------||

Note: The key to playing this piece well is to be able to work with two fingers at once, when they 
are plucking two strings that are far apart. Use your thumb to pick the base notes, and then it is 
up to you to choose which finger to pick which not beyond that.
Comments