Misc Christmas - Winter Wonderland Chords & Tabs

 

Winter Wonderland Chords & Tabs

Misc Christmas Chords & Tabs

Version: 2 Type: Tab 0 ratings
1 star 2 stars 3 stars 4 stars 5 stars
comments

Winter Wonderland Tab

  Winter Wonderland
Verse
e3-3-3---3-3-0-3---3-3-3---3-3-1-3---3-7-7-7-5---5-3-3-3-1-------------------
b---------------------------------------------------------5-5-5-5-3-3-3-3-1--
g----------------------------------------------------------------------------
d----------------------------------------------------------------------------
a----------------------------------------------------------------------------
E----------------------------------------------------------------------------


Bridge
e-------7-7-----8-8-7---------7-7----8-8-7--------10-10-------11-11-10-------
b---------------------8-----------------------------------------------11-----
g---7-7-----9-9-----------7-7-----9-9--------10-10------12-12----------------
d----------------------------------------------------------------------------
a----------------------------------------------------------------------------
E----------------------------------------------------------------------------

[ Tab from: http://www.guitartabs.cc/tabs/m/misc_christmas/winter_wonderland_tab_ver_2.html ]
e----10-10-6-6-8-8----6------------------------------------------------------
b--11-------------6-6--------------------------------------------------------
g----------------------------------------------------------------------------
d----------------------------------------------------------------------------
a----------------------------------------------------------------------------
E----------------------------------------------------------------------------
 


Hey merry christmas cool song- easy but cool- sharlene

Sleigh bells ring, are you listenin'
  In the lane, snow is glistening
  A beautiful sight, we're happy tonight
  Walking in a Winter Wonderland

  Gone away is the blue bird
  In his place is the new bird
  He's singing our song, as we go along
  Walking in a Winter Wonderland

     In the meadow we can build a snowman
     Then pretend that he is Parson Brown
     He'll say "Are you married ?", We'll say "No man,
     But you can do the job when you're in town."

  Later on, we'll conspire
  As we dream by the fire
  To face unafraid, the plans that we made
  Walking in a Winter Wonderland

     In the meadow we can build a snowman
     And pretend that he's a circus clown
     We'll have lots of fun with Mr.Snowman
     Until the other kiddies knock him down

  When it snows, ain't it thrillin'
  Though you know, kids are chillin'
  We'll frolick & play, the Eskimo way
  Walking in a Winter Wonderland
Comments