Misc Christmas - Why Am I Such A Misfit Chords & Tabs

 

Why Am I Such A Misfit Chords & Tabs

Misc Christmas Chords & Tabs

Version: 1 Type: Tab 1 rating
1 star 2 stars 3 stars 4 stars 5 stars
comments

Why Am I Such A Misfit Tab

WHY AM I SUCH A MISFIT Hard rock
Johnny Marks
tabbed By: Stephen Friedrich
  
     Why am I such a     mis   fit? 
E|--------------------------------------------|
B|--------------------------------------------|
G|--------------------------------------------|
D|----9--9-9---9---9------5------7------------|
A|----9--9-9---9---9------5------7------------|
D|----9--9-9---9---9------5------7------------|

      I am not just a     nit    wit.
E|--------------------------------------------|
B|--------------------------------------------|
G|--------------------------------------------|
D|----9--9-9----9---9------12-----11----------|
A|----9--9-9----9---9------12-----11----------|
D|----9--9-9----9---9------12-----11----------|


     You can't fire me I quit, 
E|--------------------------------------------|
B|--------------------------------------------|
G|--------------------------------------------|
D|----9----9-----9---9-5--6-------------------|
A|----9----9-----9---9-5--6-------------------|
D|----9----9-----9---9-5--6-------------------|


    since I don't fit in.
E|-----------------------------------------------|
B|-----------------------------------------------|
G|-----------------------------------------------|
D|----7---0--3-----6---5-------------------------|
A|----7---0--3-----6---5-------------------------|
D|----7---0--3-----6---5-------------------------|


     Why am I such a     mis   fit? 
E|--------------------------------------------|
B|--------------------------------------------|
G|--------------------------------------------|
D|----9--9-9---9---9------5------7------------|
A|----9--9-9---9---9------5------7------------|
D|----9--9-9---9---9------5------7------------|
[ Tab from: http://www.guitartabs.cc/tabs/m/misc_christmas/why_am_i_such_a_misfit_tab.html ]
      I am not just a     nit    wit.
E|--------------------------------------------|
B|--------------------------------------------|
G|--------------------------------------------|
D|----9--9-9----9---9------12-----11----------|
A|----9--9-9----9---9------12-----11----------|
D|----9--9-9----9---9------12-----11----------|


 
    Just because my   n o s e glows, 
E|------------------------------------------------|
B|------------------------------------------------|
G|------------------------------------------------|
D|----9---9-9-9---9--12-14-13--12------------------|
A|----9---9-9-9---9--12-14-13--12------------------|
D|----9---9-9-9---9--12-14-13--12------------------|


     why don't  I   fit in? 
E|------------------------------------------------------|
B|------------------------------------------------------|
G|------------------------------------------------------|
D|----7---0----3-----6---5-5-5-5-5-5--------------------|
A|----7---0----3-----6---5-5-5-5-5-5--------------------|
D|----7---0----3-----6---5-5-5-5-5-5--------------------|

E|------------------------------------------------------|
B|------------------------------------------------------|
G|------------------------------------------------------|
D|----7---0----3-----6---5-5-5-5-5-5--------------------|
A|----7---0----3-----6---5-5-5-5-5-5--------------------|
D|----7---0----3-----6---5-5-5-5-5-5--------------------|

E|-----------------------------------------------------------------------|
B|-----------------------------------------------------------------------|
G|-----------------------------------------------------------------------|
D|----7---0----3-----6---5-5-5-5-5-5-6-6-6-6-6-6-7-7-7-7-7-7-8---8-8-8-8-|
A|----7---0----3-----6---5-5-5-5-5-5-6-6-6-6-6-6-7-7-7-7-7-7-8---8-8-8-8-|
D|----7---0----3-----6---5-5-5-5-5-5-6-6-6-6-6-6-7-7-7-7-7-7-8---8-8-8-8-|



E|-----------------------------------------------------------|
B|-----------------------------------------------------------|
G|-----------------------------------------------------------|
D|-----------------------------------------------------------|
A|-----------------------------------------------------------|
D|-----------------------------------------------------------|
Comments