Misc Christmas - What Child Is This Chords & Tabs

 

What Child Is This Chords & Tabs

Misc Christmas Chords & Tabs

Version: 5 Type: Tab 0 ratings
1 star 2 stars 3 stars 4 stars 5 stars
comments

What Child Is This Tab

************************
***What Child is This***
********by:Recker*******
************************


Played in  time


E----|--------|-0--2--0-|--------|---------|--------|---------|--------|
B----|-1----3-|-1--3----|-3----0-|-------0-|-1------|---------|-0------|
G-2-|-2------|---------|-4------|-0--2----|-2----2-|-2--0--2-|-0----0-|
D----|--------|---------|--------|-2-------|--------|-3-------|--------|
A----|--------|---------|--------|---------|--------|---------|--------|
E----|--------|---------|--------|---------|--------|---------|--------|



[ Tab from: http://www.guitartabs.cc/tabs/m/misc_christmas/what_child_is_this_tab_ver_5.html ]
E---------|--------|-0--2--0-|--------|---------|---------|---------|-----|-----|
B---------|-1----3-|-1--3--1-|-3----0-|-------0-|-1--0----|---------|-----|-----|
G-------2-|-2------|---------|-0------|-0--2----|-2-----2-|-1-----0-|--2--|--2--|
D-2------|--------|---------|--------|-2-------|---------|-2--4----|--2--|--2--|
A---------|--------|---------|--------|---------|---------|---------|-----|-----|
E---------|--------|---------|--------|---------|---------|---------|-----|-----|




E-3--|-3--2--0-|--------|---------|--------|---------|--------|-----|
B-5--|-5--2--1-|-3----0-|-------0-|-1------|---------|-0------|-----|
G-----|---------|-4----0-|-0--2----|-2----2-|-2--0--2-|-0----0-|-----|
D-----|---------|--------|-2-------|--------|-3-------|--------|--2--|
A-----|---------|--------|---------|--------|---------|--------|-----|
E-----|---------|--------|---------|--------|---------|--------|-----|




E-3--|-3--2--0-|--------|---------|---------|---------|-----|-----|
B-5--|-5--3--1-|-3----0-|-------0-|-1--0----|---------|-----|-----|
G-----|---------|-4----0-|-0--2----|-2-----2-|-1-----1-|--2--|--2--|
D-----|---------|--------|-2-------|---------|-2--4----|--2--|-----|
A-----|---------|--------|---------|---------|---------|-----|-----|
E-----|---------|--------|---------|---------|---------|-----|-----|
Comments