Misc Christmas - We Wish You A Merry Christmas Chords & Tabs

 

We Wish You A Merry Christmas Chords & Tabs

Misc Christmas Chords & Tabs

Version: 2 Type: Tab 0 ratings
1 star 2 stars 3 stars 4 stars 5 stars
comments

We Wish You A Merry Christmas Tab

This is an easier version of "We Wish You a Merry Christmas"

E||---------------|-------------------|-----------------|-------------------|
B||---------------|-------------------|-----------------|-------------------|
G||---------------|----------0--------|-----------------|--0----0--2--0-----|
D||---------------|--3----3-----3--2--|--0----0----0----|----------------3--|
A||----------3----|-------------------|-----------------|-------------------|
E||---------------|-------------------|-----------------|-------------------|


                                                                           
-----------------|-------------------|------------------|-----------------|
-----------------|-------------------|------------------|-----------------|
-----------------|--2----2--3--2--0--|------------------|-------0---------|
--2--------------|-------------------|--3----0----------|--0---------2----|
-------3----3----|-------------------|------------3--3--|-----------------|
-----------------|-------------------|------------------|-----------------|

[ Tab from: http://www.guitartabs.cc/tabs/m/misc_christmas/we_wish_you_a_merry_christmas_tab_ver_2.html ]
                                                                      
----------------|-----------------|----------------|-----------------|
----------------|-----------------|----------------|-----------------|
----------------|-----------------|----------------|-----------------|
--3-------------|--3----3----3----|--2--------2----|--3----2----0----|
-----------3----|-----------------|----------------|-----------------|
----------------|-----------------|----------------|-----------------|


                                                                        
----------------|-----------------|------------------|-----------------|
----------------|-----------------|--1---------------|-----------------|
-----------0----|--2----0---------|------------------|-------0---------|
----------------|------------3----|------------------|--0---------2----|
--3-------------|-----------------|-------3----3--3--|-----------------|
----------------|-----------------|------------------|-----------------|


                 
---------------||
---------------||
---------------||
--3------------||
---------------||
---------------||
Comments