Misc Christmas - We Wish You A Merry Christmas Chords & Tabs

 

We Wish You A Merry Christmas Chords & Tabs

Misc Christmas Chords & Tabs

Version: 1 Type: Bass Tab 0 ratings
1 star 2 stars 3 stars 4 stars 5 stars
comments

We Wish You A Merry Christmas Bass Tab

Christmas Songs - We Wish You A Merry Christmas
Submitted By: rap_boy
EMail: jason_wassup@hotmail.com

[ Tab from: http://www.guitartabs.cc/tabs/m/misc_christmas/we_wish_you_a_merry_christmas_btab.html ]
g|-0-2-0---2-2-4-2-0-4-4-5-4-2-----5---------|
d|-------4---------------------0-2---2-4-0-4-|
a|-------------------------------------------|
e|-------------------------------------------|

g|-0-----------0---0-0-0-----0-----|
d|---2-0-0-2-4---0-------4-4---4-2-|
a|---------------------------------|
e|---------------------------------|

g|-2-4-2-2-0-0-------------0-|
d|-------------0-0-0-0-2-4---|
a|---------------------------|
e|---------------------------|
Comments