Misc Christmas - Up On The Housetop Chords & Tabs

 

Up On The Housetop Chords & Tabs

Misc Christmas Chords & Tabs

Version: 1 Type: Tab 0 ratings
1 star 2 stars 3 stars 4 stars 5 stars
comments

Up On The Housetop Tab

Just messin' around and figured this one out, noticed nobody had posted tabs
for it, so here they are. 

E-------------------------------------------
B--0-0-2-0--------0---2-2-2-2-0-------------
G----------1---1----------------1---4-4-----
D------------2--------------------4---------
A-------------------------------------------
E-------------------------------------------
 
[ Tab from: http://www.guitartabs.cc/tabs/m/misc_christmas/up_on_the_housetop_tab.html ]
E-------------------------------------------
B--0-0-2-0----------0-2-2-2-2-0-------------
G----------1--3-5-7-------------1---4-------
D---------------------------------4---2-----
A-------------------------------------------
E-------------------------------------------

Up on the housetop, reindeer pause 
Out jumps good ol' Santa Claus 
Down through the chimney with lots of toys 
All for the little ones, Christmas joys 

Ho, Ho, Ho! Who wouldn't go?
Ho, Ho, Ho! Who wouldn't go? 
Up on the housetop, click, click, click.
Down through the chimney with good Saint Nick 

First comes the stocking of little Nell, O dear Santa, fill it well; Give 
her a dolly that laughs and cries, One that will open and shut her eyes

Next comes the stocking of little Bill, Oh just see what a glorious fill. 
Here is a hammer and lots of tacks, Also a ball and a whip that cracks.

E-mail:  zeppelin_2_tool@hotmail.com
Comments