Misc Christmas - Silent Night Chords & Tabs

 

Silent Night Chords & Tabs

Misc Christmas Chords & Tabs

Version: 4 Type: Tab 3 ratings
1 star 2 stars 3 stars 4 stars 5 stars
comments

Silent Night Tab

e -0--2--0--------------
B -2--2--2--2-----------
G -2--2--2--2-----------
D ----------2-----------
A ----------------------
E ----------------------

e -0--2--0--------------
B -2--2--2--2-----------
G -2--2--2--2-----------
D ----------2-----------
A ----------------------
E ----------------------

e -7--7--7--7--7--7--7----
B -7--7--7--9--9--10-10-2-
G -7--7--7--7--7--7--7--2-
D ----------------------2-
A ------------------------
E ------------------------

e -2--2--2--5--4--2--0--2--0----
B -3--3--3--3--3--3--2--2--2--2-
G -2--2--2--2--2--2--2--2--2--2-
D ----------------------------2-
A ------------------------------
E ------------------------------
[ Tab from: http://www.guitartabs.cc/tabs/m/misc_christmas/silent_night_tab_ver_4.html ]
e -2--2--2--5--4--2--0--2--0----
B -3--3--3--3--3--3--2--2--2--2-
G -2--2--2--2--2--2--2--2--2--2-
D ----------------------------2-
A ------------------------------
E ------------------------------

e -7--7--4--4--5--5-------
B -7--7--5--5--5--5--2----
G -7--7--4--4--4--4--2----
D -------------------2----
A ------------------------
E ------------------------

e -2--2--2--5--4--2--0--2--0----
B -3--3--3--3--3--3--2--2--2--2-
G -2--2--2--2--2--2--2--2--2--2-
D ----------------------------2-
A ------------------------------
E ------------------------------

e ---------------------
B -2--2-----0--3--0--2-
G -2-----2--1--------2-
D -2--------2--------2-
A ---------------------
E ---------------------

This is my first submission!! I hope it's good
Comments