Misc Christmas - Silent Night Chords & Tabs

 

Silent Night Chords & Tabs

Misc Christmas Chords & Tabs

Version: 3 Type: Tab 2 ratings
1 star 2 stars 3 stars 4 stars 5 stars
comments

Silent Night Tab



Silent Night



Ok this tab is pretty easy. I got it out of a old piano book. Learned it pretty quickly and it sounds alright




|------------------------------------------3---3---0---1---1--------------------------------------|
|----1----3---1----------1---3----1---------------------------1----------------------------------|
|--------------------2-------------------2----------------------------------------------------------|
|----------------------------------------------------------------------------------------------------|
|----------------------------------------------------------------------------------------------------|
|----------------------------------------------------------------------------------------------------|

Ok. That’s the first part. Now for the easy part!
[ Tab from: http://www.guitartabs.cc/tabs/m/misc_christmas/silent_night_tab_ver_3.html ]
|--------------1-----0-----------------------------------------1---0------------------------|
|----3---3-----------------3-----1----3---1---------3---3------------3---1----3---1-----|
|-------------------------------------------------2---------------------------------------2--|
|---------------------------------------------------------------------------------------------|
|---------------------------------------------------------------------------------------------|
|---------------------------------------------------------------------------------------------|

Ok. Here’s there really hard part. I’m not 100% sure its right

|---3----3---------3---0----1-----------1-------------------------------1---H-O-L-D----1--|
|------------0---------------------------------1------------1-----0-----------------------------|
|------------------------------------2-----------------2-----------------------------------------|
|-------------------------------------------------------------------------------------------------|
|-------------------------------------------------------------------------------------------------|
|-------------------------------------------------------------------------------------------------|
Comments