Misc Christmas - O Holy Night Chords & Tabs

 

O Holy Night Chords & Tabs

Misc Christmas Chords & Tabs

Version: 1 Type: Tab 0 ratings
1 star 2 stars 3 stars 4 stars 5 stars
comments

O Holy Night Tab

-------0---------|------0---------|-----5--5--2-|-3--3-----
----3-----3---0--|----3---3--0----|-------------|-------3---
-----------------|----------------|-------------|-----------
-----------------|----------------|-------------|-----------
-----------------|----------------|-------------|-----------
-----------------|----------------|-------------|-----------

[ Tab from: http://www.guitartabs.cc/tabs/m/misc_christmas/o_holy_night_tab.html ]
-0---0--0----3---2--0------0-------|--5--5--5---8---5---2---3---7------
------------------------3----3---0-|-----------------------------------
-----------------------------------|-----------------------------------
-----------------------------------|-----------------------------------
-----------------------------------|-----------------------------------
-----------------------------------|-----------------------------------

-3------------|----------------------------------------------------------
----3--0--3---|-1----2----0----------------------------------------------
--------------|----------------------------------------------------------
--------------|----------------------------------------------------------
--------------|----------------------------------------------------------
--------------|----------------------------------------------------------

merry chrismas to all

Feliz navidad!!!!
Comments